  0
SECTION
  2
HEADER
  9
$ACADVER
  1
AC1006
  9
$INSBASE
 10
0.0
 20
0.0
 30
0.0
  9
$EXTMIN
 10
-26160226.500000
 20
1658667.600000
  9
$EXTMAX
 10
-24844588.900000
 20
2603013.500000
  9
$LIMMIN
 10
-26160227.500000
 20
1658666.600000
  9
$LIMMAX
 10
-24844587.900000
 20
2603012.500000
  9
$ORTHOMODE
 70
     0
  9
$REGENMODE
 70
     1
  9
$FILLMODE
 70
     1
  9
$QTEXTMODE
 70
     0
  9
$MIRRTEXT
 70
     1
  9
$DRAGMODE
 70
     2
  9
$LTSCALE
 40
1.0
  9
$OSMODE
 70
     0
  9
$ATTMODE
 70
     1
  9
$TEXTSIZE
 40
0.2
  9
$TRACEWID
 40
0.05
  9
$TEXTSTYLE
  7
STANDARD
  9
$CLAYER
  8
0
  9
$CELTYPE
  6
BYLAYER
  9
$CECOLOR
 62
   256
  9
$DIMSCALE
 40
1.0
  9
$DIMASZ
 40
0.18
  9
$DIMEXO
 40
0.0625
  9
$DIMDLI
 40
0.38
  9
$DIMRND
 40
0.0
  9
$DIMDLE
 40
0.0
  9
$DIMEXE
 40
0.18
  9
$DIMTP
 40
0.0
  9
$DIMTM
 40
0.0
  9
$DIMTXT
 40
0.18
  9
$DIMCEN
 40
0.09
  9
$DIMTSZ
 40
0.0
  9
$DIMTOL
 70
     0
  9
$DIMLIM
 70
     0
  9
$DIMTIH
 70
     1
  9
$DIMTOH
 70
     1
  9
$DIMSE1
 70
     0
  9
$DIMSE2
 70
     0
  9
$DIMTAD
 70
     0
  9
$DIMZIN
 70
     0
  9
$DIMBLK
  1

  9
$DIMASO
 70
     1
  9
$DIMSHO
 70
     0
  9
$DIMPOST
  1

  9
$DIMAPOST
  1

  9
$DIMALT
 70
     0
  9
$DIMALTD
 70
     2
  9
$DIMALTF
 40
25.4
  9
$DIMLFAC
 40
1.0
  9
$DIMTOFL
 70
     0
  9
$DIMTVP
 40
0.0
  9
$DIMTIX
 70
     0
  9
$DIMSOXD
 70
     0
  9
$DIMSAH
 70
     0
  9
$DIMBLK1
  1

  9
$DIMBLK2
  1

  9
$LUNITS
 70
     2
  9
$LUPREC
 70
     4
  9
$AXISMODE
 70
     0
  9
$AXISUNIT
 10
0.0
 20
0.0
  9
$SKETCHINC
 40
0.1
  9
$FILLETRAD
 40
0.0
  9
$AUNITS
 70
     0
  9
$AUPREC
 70
     0
  9
$MENU
  1
acad
  9
$ELEVATION
 40
0.0
  9
$THICKNESS
 40
0.0
  9
$LIMCHECK
 70
     0
  9
$BLIPMODE
 70
     1
  9
$CHAMFERA
 40
0.0
  9
$CHAMFERB
 40
0.0
  9
$SKPOLY
 70
     0
  9
$TDCREATE
 40
2447847.4728913195
  9
$TDUPDATE
 40
2447847.4728913195
  9
$TDINDWG
 40
0.0000000000
  9
$TDUSRTIMER
 40
0.0000000000
  9
$USRTIMER
 70
     1
  9
$ANGBASE
 50
0.0
  9
$ANGDIR
 70
     0
  9
$PDMODE
 70
     0
  9
$PDSIZE
 40
0.0
  9
$PLINEWID
 40
0.0
  9
$COORDS
 70
     0
  9
$SPLFRAME
 70
     0
  9
$SPLINETYPE
 70
     6
  9
$SPLINESEGS
 70
     8
  9
$ATTDIA
 70
     0
  9
$ATTREQ
 70
     1
  9
$HANDLING
 70
     0
  9
$HANDSEED
  5
0
  9
$SURFTAB1
 70
     6
  9
$SURFTAB2
 70
     6
  9
$SURFTYPE
 70
     6
  9
$SURFU
 70
     6
  9
$SURFV
 70
     6
  9
$FLATLAND
 70
     0
  9
$UCSNAME
  2

  9
$UCSORG
 10
0.0
 20
0.0
 30
0.0
  9
$UCSXDIR
 10
1.0
 20
0.0
 30
0.0
  9
$UCSYDIR
 10
0.0
 20
1.0
 30
0.0
  9
$USERI1
 70
     0
  9
$USERI2
 70
     0
  9
$USERI3
 70
     0
  9
$USERI4
 70
     0
  9
$USERI5
 70
     0
  9
$USERR1
 40
0.0
  9
$USERR2
 40
0.0
  9
$USERR3
 40
0.0
  9
$USERR4
 40
0.0
  9
$USERR5
 40
0.0
  9
$WORLDVIEW
 70
     1
  0
ENDSEC
  0
SECTION
  2
TABLES
  0
TABLE
  2
LTYPE
 70
    4
  0
LTYPE
  2
CONTINUOUS
 70
    64
3
Solid line
 72
    65
 73
0
 40
0.000000
  0
LTYPE
  2
HIDDEN
 70
    64
3
_ _ _ _ _ _ _ _ _ _ _ _ _ _ _ _ _ _ _ _ _ _ _
 72
    65
 73
2
 40
0.375000
 49
0.250000
 49
-0.125000
  0
LTYPE
  2
DASHED
 70
    64
3
__ __ __ __ __ __ __ __ __ __ __ __ __ __ __
 72
    65
 73
2
 40
0.750000
 49
0.500000
 49
-0.250000
  0
LTYPE
  2
5
 70
    64
  3
Solid Line
 72
    65
 73
0
 40
0.0
  0
ENDTAB
  0
TABLE
  2
LAYER
 70
    2
  0
LAYER
  2
0
 70
    64
 62
7
  6
CONTINUOUS
  0
LAYER
  2
1
 70
    64
 62
7
  6
CONTINUOUS
  0
ENDTAB
  0
TABLE
  2
STYLE
 70
    1
  0
STYLE
  2
GREEN
70
     0
 40
0.0
 41
1.0
 50
0.0
 71
     0
 42
0.2
  3
txt
  4

  0
ENDTAB
  0
ENDSEC
  0
SECTION
  2
BLOCKS
  0
BLOCK
  8
0
  2
UELOGO
 70
    64
 10
0.000000
 20
0.000000
 30
0.000000
  0
POLYLINE
  8
1
  6
CONTINUOUS
 66
     1
 70
     0
 10
0.000000
 20
0.000000
30
0.000000
  0
VERTEX
  8
1
  6
CONTINUOUS
 10
-1400.000000
 20
-62927.900000
30
0.000000
  0
VERTEX
  8
1
  6
CONTINUOUS
 10
-765.000000
 20
-62927.900000
30
0.000000
  0
VERTEX
  8
1
  6
CONTINUOUS
 10
-104.000000
 20
-62902.900000
30
0.000000
  0
VERTEX
  8
1
  6
CONTINUOUS
 10
531.000000
 20
-62876.900000
30
0.000000
  0
VERTEX
  8
1
  6
CONTINUOUS
 10
1192.000000
 20
-62851.900000
30
0.000000
  0
VERTEX
  8
1
  6
CONTINUOUS
 10
1827.000000
 20
-62825.900000
30
0.000000
  0
VERTEX
  8
1
  6
CONTINUOUS
 10
2488.000000
 20
-62800.900000
30
0.000000
  0
VERTEX
  8
1
  6
CONTINUOUS
 10
3123.000000
 20
-62775.900000
30
0.000000
  0
VERTEX
  8
1
  6
CONTINUOUS
 10
3784.000000
 20
-62724.900000
30
0.000000
  0
VERTEX
  8
1
  6
CONTINUOUS
 10
4419.000000
 20
-62673.900000
30
0.000000
  0
VERTEX
  8
1
  6
CONTINUOUS
 10
5080.000000
 20
-62622.900000
30
0.000000
  0
VERTEX
  8
1
  6
CONTINUOUS
 10
5714.900000
 20
-62571.900000
30
0.000000
  0
VERTEX
  8
1
  6
CONTINUOUS
 10
6375.900000
 20
-62520.900000
30
0.000000
  0
VERTEX
  8
1
  6
CONTINUOUS
 10
7010.900000
 20
-62470.900000
30
0.000000
  0
VERTEX
  8
1
  6
CONTINUOUS
 10
7670.900000
 20
-62393.900000
30
0.000000
  0
VERTEX
  8
1
  6
CONTINUOUS
 10
8306.900000
 20
-62317.900000
30
0.000000
  0
VERTEX
  8
1
  6
CONTINUOUS
 10
8941.900000
 20
-62241.900000
30
0.000000
  0
VERTEX
  8
1
  6
CONTINUOUS
 10
9119.900000
 20
-62190.900000
30
0.000000
  0
VERTEX
  8
1
  6
CONTINUOUS
 10
9297.900000
 20
-62139.900000
30
0.000000
  0
VERTEX
  8
1
  6
CONTINUOUS
 10
9475.900000
 20
-62088.900000
30
0.000000
  0
VERTEX
  8
1
  6
CONTINUOUS
 10
9627.900000
 20
-62063.900000
30
0.000000
  0
VERTEX
  8
1
  6
CONTINUOUS
 10
9780.900000
 20
-62038.900000
30
0.000000
  0
VERTEX
  8
1
  6
CONTINUOUS
 10
9957.900000
 20
-62012.900000
30
0.000000
  0
VERTEX
  8
1
  6
CONTINUOUS
 10
10110.900000
 20
-61961.900000
30
0.000000
  0
VERTEX
  8
1
  6
CONTINUOUS
 10
10262.900000
 20
-61936.900000
30
0.000000
  0
VERTEX
  8
1
  6
CONTINUOUS
 10
12117.900000
 20
-61606.900000
30
0.000000
  0
VERTEX
  8
1
  6
CONTINUOUS
 10
13947.900000
 20
-61199.900000
30
0.000000
  0
VERTEX
  8
1
  6
CONTINUOUS
 10
15725.900000
 20
-60767.900000
30
0.000000
  0
VERTEX
  8
1
  6
CONTINUOUS
 10
17504.800000
 20
-60284.900000
30
0.000000
  0
VERTEX
  8
1
  6
CONTINUOUS
 10
19257.800000
 20
-59751.900000
30
0.000000
  0
VERTEX
  8
1
  6
CONTINUOUS
 10
20960.800000
 20
-59166.900000
30
0.000000
  0
VERTEX
  8
1
  6
CONTINUOUS
 10
22662.800000
 20
-58532.000000
30
0.000000
  0
VERTEX
  8
1
  6
CONTINUOUS
 10
24314.800000
 20
-57846.000000
30
0.000000
  0
VERTEX
  8
1
  6
CONTINUOUS
 10
25966.800000
 20
-57135.000000
30
0.000000
  0
VERTEX
  8
1
  6
CONTINUOUS
 10
27567.700000
 20
-56347.000000
30
0.000000
  0
VERTEX
  8
1
  6
CONTINUOUS
 10
29142.700000
 20
-55534.000000
30
0.000000
  0
VERTEX
  8
1
  6
CONTINUOUS
 10
30692.700000
 20
-54695.000000
30
0.000000
  0
VERTEX
  8
1
  6
CONTINUOUS
 10
32216.700000
 20
-53806.000000
30
0.000000
  0
VERTEX
  8
1
  6
CONTINUOUS
 10
33689.700000
 20
-52866.000000
30
0.000000
  0
VERTEX
  8
1
  6
CONTINUOUS
 10
35163.700000
 20
-51900.000000
30
0.000000
  0
VERTEX
  8
1
  6
CONTINUOUS
 10
36586.700000
 20
-50884.000000
30
0.000000
  0
VERTEX
  8
1
  6
CONTINUOUS
 10
37958.600000
 20
-49842.000000
30
0.000000
  0
VERTEX
  8
1
  6
CONTINUOUS
 10
39330.600000
 20
-48749.000000
30
0.000000
  0
VERTEX
  8
1
  6
CONTINUOUS
 10
40652.600000
 20
-47631.100000
30
0.000000
  0
VERTEX
  8
1
  6
CONTINUOUS
 10
41948.600000
 20
-46462.100000
30
0.000000
  0
VERTEX
  8
1
  6
CONTINUOUS
 10
43218.600000
 20
-45268.100000
30
0.000000
  0
VERTEX
  8
1
  6
CONTINUOUS
 10
44463.600000
 20
-44048.100000
30
0.000000
  0
VERTEX
  8
1
  6
CONTINUOUS
 10
45657.600000
 20
-42803.100000
30
0.000000
  0
VERTEX
  8
1
  6
CONTINUOUS
 10
46801.600000
 20
-41507.100000
30
0.000000
  0
VERTEX
  8
1
  6
CONTINUOUS
 10
47944.600000
 20
-40186.100000
30
0.000000
  0
VERTEX
  8
1
  6
CONTINUOUS
 10
49037.500000
 20
-38839.100000
30
0.000000
  0
VERTEX
  8
1
  6
CONTINUOUS
 10
50079.500000
 20
-37467.200000
30
0.000000
  0
VERTEX
  8
1
  6
CONTINUOUS
 10
51121.500000
 20
-36070.200000
30
0.000000
  0
VERTEX
  8
1
  6
CONTINUOUS
 10
52086.500000
 20
-34647.200000
30
0.000000
  0
VERTEX
  8
1
  6
CONTINUOUS
 10
53052.500000
 20
-33173.200000
30
0.000000
  0
VERTEX
  8
1
  6
CONTINUOUS
 10
53967.500000
 20
-31699.200000
30
0.000000
  0
VERTEX
  8
1
  6
CONTINUOUS
 10
54830.500000
 20
-30200.200000
30
0.000000
  0
VERTEX
  8
1
  6
CONTINUOUS
 10
55059.500000
 20
-29768.200000
30
0.000000
  0
VERTEX
  8
1
  6
CONTINUOUS
 10
55288.500000
 20
-29311.200000
30
0.000000
  0
VERTEX
  8
1
  6
CONTINUOUS
 10
55491.500000
 20
-28879.200000
30
0.000000
  0
VERTEX
  8
1
  6
CONTINUOUS
 10
55720.500000
 20
-28447.200000
30
0.000000
  0
VERTEX
  8
1
  6
CONTINUOUS
 10
55923.500000
 20
-28015.200000
30
0.000000
  0
VERTEX
  8
1
  6
CONTINUOUS
 10
56152.500000
 20
-27583.200000
30
0.000000
  0
VERTEX
  8
1
  6
CONTINUOUS
 10
56380.500000
 20
-27151.200000
30
0.000000
  0
VERTEX
  8
1
  6
CONTINUOUS
 10
56609.500000
 20
-26744.300000
30
0.000000
  0
VERTEX
  8
1
  6
CONTINUOUS
 10
57295.500000
 20
-26541.300000
30
0.000000
  0
VERTEX
  8
1
  6
CONTINUOUS
 10
57956.500000
 20
-26312.300000
30
0.000000
  0
VERTEX
  8
1
  6
CONTINUOUS
 10
58617.500000
 20
-26084.300000
30
0.000000
  0
VERTEX
  8
1
  6
CONTINUOUS
 10
59277.400000
 20
-25829.300000
30
0.000000
  0
VERTEX
  8
1
  6
CONTINUOUS
 10
59938.400000
 20
-25575.300000
30
0.000000
  0
VERTEX
  8
1
  6
CONTINUOUS
 10
60573.400000
 20
-25296.300000
30
0.000000
  0
VERTEX
  8
1
  6
CONTINUOUS
 10
61208.400000
 20
-25016.300000
30
0.000000
  0
VERTEX
  8
1
  6
CONTINUOUS
 10
61818.400000
 20
-24737.300000
30
0.000000
  0
VERTEX
  8
1
  6
CONTINUOUS
 10
62453.400000
 20
-24432.300000
30
0.000000
  0
VERTEX
  8
1
  6
CONTINUOUS
 10
63063.400000
 20
-24127.300000
30
0.000000
  0
VERTEX
  8
1
  6
CONTINUOUS
 10
63648.400000
 20
-23797.300000
30
0.000000
  0
VERTEX
  8
1
  6
CONTINUOUS
 10
64258.400000
 20
-23466.300000
30
0.000000
  0
VERTEX
  8
1
  6
CONTINUOUS
 10
64842.400000
 20
-23111.300000
30
0.000000
  0
VERTEX
  8
1
  6
CONTINUOUS
 10
65426.400000
 20
-22755.300000
30
0.000000
  0
VERTEX
  8
1
  6
CONTINUOUS
 10
65985.400000
 20
-22374.300000
30
0.000000
  0
VERTEX
  8
1
  6
CONTINUOUS
 10
66544.400000
 20
-21993.300000
30
0.000000
  0
VERTEX
  8
1
  6
CONTINUOUS
 10
67103.400000
 20
-21611.300000
30
0.000000
  0
VERTEX
  8
1
  6
CONTINUOUS
 10
67637.400000
 20
-21205.300000
30
0.000000
  0
VERTEX
  8
1
  6
CONTINUOUS
 10
68171.400000
 20
-20773.300000
30
0.000000
  0
VERTEX
  8
1
  6
CONTINUOUS
 10
68704.400000
 20
-20341.300000
30
0.000000
  0
VERTEX
  8
1
  6
CONTINUOUS
 10
69213.400000
 20
-19909.300000
30
0.000000
  0
VERTEX
  8
1
  6
CONTINUOUS
 10
69721.400000
 20
-19452.300000
30
0.000000
  0
VERTEX
  8
1
  6
CONTINUOUS
 10
70229.300000
 20
-18994.300000
30
0.000000
  0
VERTEX
  8
1
  6
CONTINUOUS
 10
70712.300000
 20
-18511.300000
30
0.000000
  0
VERTEX
  8
1
  6
CONTINUOUS
 10
71194.300000
 20
-18003.300000
30
0.000000
  0
VERTEX
  8
1
  6
CONTINUOUS
 10
71677.300000
 20
-17495.300000
30
0.000000
  0
VERTEX
  8
1
  6
CONTINUOUS
 10
72135.300000
 20
-16987.300000
30
0.000000
  0
VERTEX
  8
1
  6
CONTINUOUS
 10
72592.300000
 20
-16453.300000
30
0.000000
  0
VERTEX
  8
1
  6
CONTINUOUS
 10
73024.300000
 20
-15894.400000
30
0.000000
  0
VERTEX
  8
1
  6
CONTINUOUS
 10
73456.300000
 20
-15335.400000
30
0.000000
  0
VERTEX
  8
1
  6
CONTINUOUS
 10
73888.300000
 20
-14776.400000
30
0.000000
  0
VERTEX
  8
1
  6
CONTINUOUS
 10
74295.300000
 20
-14192.400000
30
0.000000
  0
VERTEX
  8
1
  6
CONTINUOUS
 10
74676.300000
 20
-13556.400000
30
0.000000
  0
VERTEX
  8
1
  6
CONTINUOUS
 10
74701.300000
 20
-13353.400000
30
0.000000
  0
VERTEX
  8
1
  6
CONTINUOUS
 10
74676.300000
 20
-13175.400000
30
0.000000
  0
VERTEX
  8
1
  6
CONTINUOUS
 10
74625.300000
 20
-12972.400000
30
0.000000
  0
SEQEND
  8
0
  0
POLYLINE
  8
1
  6
CONTINUOUS
 66
     1
 70
     0
 10
0.000000
 20
0.000000
30
0.000000
  0
VERTEX
  8
1
  6
CONTINUOUS
 10
74625.300000
 20
-12972.400000
30
0.000000
  0
VERTEX
  8
1
  6
CONTINUOUS
 10
74574.300000
 20
-12794.400000
30
0.000000
  0
VERTEX
  8
1
  6
CONTINUOUS
 10
74472.300000
 20
-12642.400000
30
0.000000
  0
VERTEX
  8
1
  6
CONTINUOUS
 10
74345.300000
 20
-12464.400000
30
0.000000
  0
VERTEX
  8
1
  6
CONTINUOUS
 10
74167.300000
 20
-12337.400000
30
0.000000
  0
VERTEX
  8
1
  6
CONTINUOUS
 10
73990.300000
 20
-12210.400000
30
0.000000
  0
VERTEX
  8
1
  6
CONTINUOUS
 10
73761.300000
 20
-12083.400000
30
0.000000
  0
VERTEX
  8
1
  6
CONTINUOUS
 10
73532.300000
 20
-11981.400000
30
0.000000
  0
VERTEX
  8
1
  6
CONTINUOUS
 10
73304.300000
 20
-11930.400000
30
0.000000
  0
VERTEX
  8
1
  6
CONTINUOUS
 10
73075.300000
 20
-11879.400000
30
0.000000
  0
VERTEX
  8
1
  6
CONTINUOUS
 10
72821.300000
 20
-11879.400000
30
0.000000
  0
VERTEX
  8
1
  6
CONTINUOUS
 10
72592.300000
 20
-11879.400000
30
0.000000
  0
VERTEX
  8
1
  6
CONTINUOUS
 10
72363.300000
 20
-11956.400000
30
0.000000
  0
VERTEX
  8
1
  6
CONTINUOUS
 10
72135.300000
 20
-12032.400000
30
0.000000
  0
VERTEX
  8
1
  6
CONTINUOUS
 10
71372.300000
 20
-12438.400000
30
0.000000
  0
VERTEX
  8
1
  6
CONTINUOUS
 10
70635.300000
 20
-12870.400000
30
0.000000
  0
VERTEX
  8
1
  6
CONTINUOUS
 10
69899.300000
 20
-13328.400000
30
0.000000
  0
VERTEX
  8
1
  6
CONTINUOUS
 10
69187.400000
 20
-13785.400000
30
0.000000
  0
VERTEX
  8
1
  6
CONTINUOUS
 10
68476.400000
 20
-14293.400000
30
0.000000
  0
VERTEX
  8
1
  6
CONTINUOUS
 10
67764.400000
 20
-14776.400000
30
0.000000
  0
VERTEX
  8
1
  6
CONTINUOUS
 10
67078.400000
 20
-15259.400000
30
0.000000
  0
VERTEX
  8
1
  6
CONTINUOUS
 10
66367.400000
 20
-15742.400000
30
0.000000
  0
VERTEX
  8
1
  6
CONTINUOUS
 10
65630.400000
 20
-16224.300000
30
0.000000
  0
VERTEX
  8
1
  6
CONTINUOUS
 10
64893.400000
 20
-16656.300000
30
0.000000
  0
VERTEX
  8
1
  6
CONTINUOUS
 10
64131.400000
 20
-17063.300000
30
0.000000
  0
VERTEX
  8
1
  6
CONTINUOUS
 10
63343.400000
 20
-17444.300000
30
0.000000
  0
VERTEX
  8
1
  6
CONTINUOUS
 10
62530.400000
 20
-17774.300000
30
0.000000
  0
VERTEX
  8
1
  6
CONTINUOUS
 10
61666.400000
 20
-18029.300000
30
0.000000
  0
VERTEX
  8
1
  6
CONTINUOUS
 10
60776.400000
 20
-18232.300000
30
0.000000
  0
VERTEX
  8
1
  6
CONTINUOUS
 10
59836.400000
 20
-18384.300000
30
0.000000
  0
VERTEX
  8
1
  6
CONTINUOUS
 10
60497.400000
 20
-16123.300000
30
0.000000
  0
VERTEX
  8
1
  6
CONTINUOUS
 10
61030.400000
 20
-13836.400000
30
0.000000
  0
VERTEX
  8
1
  6
CONTINUOUS
 10
61513.400000
 20
-11574.400000
30
0.000000
  0
VERTEX
  8
1
  6
CONTINUOUS
 10
61894.400000
 20
-9313.400000
30
0.000000
  0
VERTEX
  8
1
  6
CONTINUOUS
 10
62174.400000
 20
-7051.400000
30
0.000000
  0
VERTEX
  8
1
  6
CONTINUOUS
 10
62403.400000
 20
-4765.500000
30
0.000000
  0
VERTEX
  8
1
  6
CONTINUOUS
 10
62530.400000
 20
-2503.500000
30
0.000000
  0
VERTEX
  8
1
  6
CONTINUOUS
 10
62606.400000
 20
-216.500000
30
0.000000
  0
VERTEX
  8
1
  6
CONTINUOUS
 10
63343.400000
 20
87.500000
30
0.000000
  0
VERTEX
  8
1
  6
CONTINUOUS
 10
64080.400000
 20
392.500000
30
0.000000
  0
VERTEX
  8
1
  6
CONTINUOUS
 10
64817.400000
 20
722.500000
30
0.000000
  0
VERTEX
  8
1
  6
CONTINUOUS
 10
65528.400000
 20
1052.500000
30
0.000000
  0
VERTEX
  8
1
  6
CONTINUOUS
 10
66240.400000
 20
1408.500000
30
0.000000
  0
VERTEX
  8
1
  6
CONTINUOUS
 10
66951.400000
 20
1764.500000
30
0.000000
  0
VERTEX
  8
1
  6
CONTINUOUS
 10
67662.400000
 20
2145.500000
30
0.000000
  0
VERTEX
  8
1
  6
CONTINUOUS
 10
68349.400000
 20
2552.500000
30
0.000000
  0
VERTEX
  8
1
  6
CONTINUOUS
 10
69009.400000
 20
2958.500000
30
0.000000
  0
VERTEX
  8
1
  6
CONTINUOUS
 10
69695.400000
 20
3365.500000
30
0.000000
  0
VERTEX
  8
1
  6
CONTINUOUS
 10
70331.300000
 20
3822.500000
30
0.000000
  0
VERTEX
  8
1
  6
CONTINUOUS
 10
70966.300000
 20
4279.500000
30
0.000000
  0
VERTEX
  8
1
  6
CONTINUOUS
 10
71601.300000
 20
4737.500000
30
0.000000
  0
VERTEX
  8
1
  6
CONTINUOUS
 10
72211.300000
 20
5220.500000
30
0.000000
  0
VERTEX
  8
1
  6
CONTINUOUS
 10
72795.300000
 20
5728.400000
30
0.000000
  0
VERTEX
  8
1
  6
CONTINUOUS
 10
73380.300000
 20
6261.400000
30
0.000000
  0
VERTEX
  8
1
  6
CONTINUOUS
 10
73939.300000
 20
6795.400000
30
0.000000
  0
VERTEX
  8
1
  6
CONTINUOUS
 10
74498.300000
 20
7354.400000
30
0.000000
  0
VERTEX
  8
1
  6
CONTINUOUS
 10
75006.300000
 20
7913.400000
30
0.000000
  0
VERTEX
  8
1
  6
CONTINUOUS
 10
75514.300000
 20
8497.400000
30
0.000000
  0
VERTEX
  8
1
  6
CONTINUOUS
 10
75997.300000
 20
9107.400000
30
0.000000
  0
VERTEX
  8
1
  6
CONTINUOUS
 10
76480.300000
 20
9743.400000
30
0.000000
  0
VERTEX
  8
1
  6
CONTINUOUS
 10
76912.300000
 20
10378.400000
30
0.000000
  0
VERTEX
  8
1
  6
CONTINUOUS
 10
77344.300000
 20
11038.400000
30
0.000000
  0
VERTEX
  8
1
  6
CONTINUOUS
 10
77725.300000
 20
11725.400000
30
0.000000
  0
VERTEX
  8
1
  6
CONTINUOUS
 10
78106.300000
 20
12411.400000
30
0.000000
  0
VERTEX
  8
1
  6
CONTINUOUS
 10
78462.300000
 20
13122.400000
30
0.000000
  0
VERTEX
  8
1
  6
CONTINUOUS
 10
78767.300000
 20
13859.400000
30
0.000000
  0
VERTEX
  8
1
  6
CONTINUOUS
 10
79072.300000
 20
14621.400000
30
0.000000
  0
VERTEX
  8
1
  6
CONTINUOUS
 10
79326.300000
 20
15409.400000
30
0.000000
  0
VERTEX
  8
1
  6
CONTINUOUS
 10
79580.300000
 20
16197.300000
30
0.000000
  0
VERTEX
  8
1
  6
CONTINUOUS
 10
79783.300000
 20
17010.300000
30
0.000000
  0
VERTEX
  8
1
  6
CONTINUOUS
 10
80063.300000
 20
18255.300000
30
0.000000
  0
VERTEX
  8
1
  6
CONTINUOUS
 10
80215.300000
 20
19500.300000
30
0.000000
  0
VERTEX
  8
1
  6
CONTINUOUS
 10
80240.300000
 20
20771.300000
30
0.000000
  0
VERTEX
  8
1
  6
CONTINUOUS
 10
80139.300000
 20
22016.300000
30
0.000000
  0
VERTEX
  8
1
  6
CONTINUOUS
 10
79885.300000
 20
23235.300000
30
0.000000
  0
VERTEX
  8
1
  6
CONTINUOUS
 10
79478.300000
 20
24379.300000
30
0.000000
  0
VERTEX
  8
1
  6
CONTINUOUS
 10
78919.300000
 20
25421.300000
30
0.000000
  0
VERTEX
  8
1
  6
CONTINUOUS
 10
78208.300000
 20
26335.300000
30
0.000000
  0
VERTEX
  8
1
  6
CONTINUOUS
 10
77826.300000
 20
26818.300000
30
0.000000
  0
VERTEX
  8
1
  6
CONTINUOUS
 10
77395.300000
 20
27225.200000
30
0.000000
  0
VERTEX
  8
1
  6
CONTINUOUS
 10
76912.300000
 20
27606.200000
30
0.000000
  0
VERTEX
  8
1
  6
CONTINUOUS
 10
76429.300000
 20
27936.200000
30
0.000000
  0
VERTEX
  8
1
  6
CONTINUOUS
 10
75895.300000
 20
28216.200000
30
0.000000
  0
VERTEX
  8
1
  6
CONTINUOUS
 10
75336.300000
 20
28470.200000
30
0.000000
  0
VERTEX
  8
1
  6
CONTINUOUS
 10
74777.300000
 20
28673.200000
30
0.000000
  0
VERTEX
  8
1
  6
CONTINUOUS
 10
74193.300000
 20
28851.200000
30
0.000000
  0
VERTEX
  8
1
  6
CONTINUOUS
 10
73583.300000
 20
28978.200000
30
0.000000
  0
VERTEX
  8
1
  6
CONTINUOUS
 10
72973.300000
 20
29105.200000
30
0.000000
  0
VERTEX
  8
1
  6
CONTINUOUS
 10
72363.300000
 20
29207.200000
30
0.000000
  0
VERTEX
  8
1
  6
CONTINUOUS
 10
71754.300000
 20
29257.200000
30
0.000000
  0
VERTEX
  8
1
  6
CONTINUOUS
 10
71118.300000
 20
29308.200000
30
0.000000
  0
VERTEX
  8
1
  6
CONTINUOUS
 10
70508.300000
 20
29359.200000
30
0.000000
  0
VERTEX
  8
1
  6
CONTINUOUS
 10
69899.300000
 20
29385.200000
30
0.000000
  0
VERTEX
  8
1
  6
CONTINUOUS
 10
69314.400000
 20
29410.200000
30
0.000000
  0
VERTEX
  8
1
  6
CONTINUOUS
 10
68730.400000
 20
29359.200000
30
0.000000
  0
VERTEX
  8
1
  6
CONTINUOUS
 10
68145.400000
 20
29308.200000
30
0.000000
  0
VERTEX
  8
1
  6
CONTINUOUS
 10
67561.400000
 20
29232.200000
30
0.000000
  0
VERTEX
  8
1
  6
CONTINUOUS
 10
66951.400000
 20
29181.200000
30
0.000000
  0
VERTEX
  8
1
  6
CONTINUOUS
 10
66367.400000
 20
29105.200000
30
0.000000
  0
VERTEX
  8
1
  6
CONTINUOUS
 10
65782.400000
 20
29029.200000
30
0.000000
  0
VERTEX
  8
1
  6
CONTINUOUS
 10
65198.400000
 20
28953.200000
30
0.000000
  0
SEQEND
  8
0
  0
POLYLINE
  8
1
  6
CONTINUOUS
 66
     1
 70
     0
 10
0.000000
 20
0.000000
30
0.000000
  0
VERTEX
  8
1
  6
CONTINUOUS
 10
65198.400000
 20
28953.200000
30
0.000000
  0
VERTEX
  8
1
  6
CONTINUOUS
 10
64613.400000
 20
28876.200000
30
0.000000
  0
VERTEX
  8
1
  6
CONTINUOUS
 10
64029.400000
 20
28775.200000
30
0.000000
  0
VERTEX
  8
1
  6
CONTINUOUS
 10
63470.400000
 20
28648.200000
30
0.000000
  0
VERTEX
  8
1
  6
CONTINUOUS
 10
62885.400000
 20
28546.200000
30
0.000000
  0
VERTEX
  8
1
  6
CONTINUOUS
 10
62326.400000
 20
28419.200000
30
0.000000
  0
VERTEX
  8
1
  6
CONTINUOUS
 10
61742.400000
 20
28266.200000
30
0.000000
  0
VERTEX
  8
1
  6
CONTINUOUS
 10
61183.400000
 20
28114.200000
30
0.000000
  0
VERTEX
  8
1
  6
CONTINUOUS
 10
60649.400000
 20
27962.200000
30
0.000000
  0
VERTEX
  8
1
  6
CONTINUOUS
 10
60090.400000
 20
27784.200000
30
0.000000
  0
VERTEX
  8
1
  6
CONTINUOUS
 10
56838.500000
 20
26539.300000
30
0.000000
  0
VERTEX
  8
1
  6
CONTINUOUS
 10
56787.500000
 20
26539.300000
30
0.000000
  0
VERTEX
  8
1
  6
CONTINUOUS
 10
56762.500000
 20
26564.300000
30
0.000000
  0
VERTEX
  8
1
  6
CONTINUOUS
 10
56711.500000
 20
26615.300000
30
0.000000
  0
VERTEX
  8
1
  6
CONTINUOUS
 10
56660.500000
 20
26666.300000
30
0.000000
  0
VERTEX
  8
1
  6
CONTINUOUS
 10
55923.500000
 20
28165.200000
30
0.000000
  0
VERTEX
  8
1
  6
CONTINUOUS
 10
55161.500000
 20
29639.200000
30
0.000000
  0
VERTEX
  8
1
  6
CONTINUOUS
 10
54348.500000
 20
31087.200000
30
0.000000
  0
VERTEX
  8
1
  6
CONTINUOUS
 10
53509.500000
 20
32535.200000
30
0.000000
  0
VERTEX
  8
1
  6
CONTINUOUS
 10
52594.500000
 20
33958.200000
30
0.000000
  0
VERTEX
  8
1
  6
CONTINUOUS
 10
51680.500000
 20
35356.200000
30
0.000000
  0
VERTEX
  8
1
  6
CONTINUOUS
 10
50714.500000
 20
36728.200000
30
0.000000
  0
VERTEX
  8
1
  6
CONTINUOUS
 10
49698.500000
 20
38075.100000
30
0.000000
  0
VERTEX
  8
1
  6
CONTINUOUS
 10
48656.500000
 20
39396.100000
30
0.000000
  0
VERTEX
  8
1
  6
CONTINUOUS
 10
47589.600000
 20
40717.100000
30
0.000000
  0
VERTEX
  8
1
  6
CONTINUOUS
 10
46471.600000
 20
41988.100000
30
0.000000
  0
VERTEX
  8
1
  6
CONTINUOUS
 10
45302.600000
 20
43233.100000
30
0.000000
  0
VERTEX
  8
1
  6
CONTINUOUS
 10
44133.600000
 20
44453.100000
30
0.000000
  0
VERTEX
  8
1
  6
CONTINUOUS
 10
42913.600000
 20
45647.100000
30
0.000000
  0
VERTEX
  8
1
  6
CONTINUOUS
 10
41668.600000
 20
46816.100000
30
0.000000
  0
VERTEX
  8
1
  6
CONTINUOUS
 10
40372.600000
 20
47959.100000
30
0.000000
  0
VERTEX
  8
1
  6
CONTINUOUS
 10
39051.600000
 20
49052.000000
30
0.000000
  0
VERTEX
  8
1
  6
CONTINUOUS
 10
37704.600000
 20
50119.000000
30
0.000000
  0
VERTEX
  8
1
  6
CONTINUOUS
 10
36332.700000
 20
51135.000000
30
0.000000
  0
VERTEX
  8
1
  6
CONTINUOUS
 10
34934.700000
 20
52126.000000
30
0.000000
  0
VERTEX
  8
1
  6
CONTINUOUS
 10
33486.700000
 20
53092.000000
30
0.000000
  0
VERTEX
  8
1
  6
CONTINUOUS
 10
32038.700000
 20
54007.000000
30
0.000000
  0
VERTEX
  8
1
  6
CONTINUOUS
 10
30539.700000
 20
54871.000000
30
0.000000
  0
VERTEX
  8
1
  6
CONTINUOUS
 10
29015.700000
 20
55709.000000
30
0.000000
  0
VERTEX
  8
1
  6
CONTINUOUS
 10
27490.700000
 20
56497.000000
30
0.000000
  0
VERTEX
  8
1
  6
CONTINUOUS
 10
25915.800000
 20
57259.000000
30
0.000000
  0
VERTEX
  8
1
  6
CONTINUOUS
 10
24314.800000
 20
57971.000000
30
0.000000
  0
VERTEX
  8
1
  6
CONTINUOUS
 10
22713.800000
 20
58631.000000
30
0.000000
  0
VERTEX
  8
1
  6
CONTINUOUS
 10
21062.800000
 20
59240.900000
30
0.000000
  0
VERTEX
  8
1
  6
CONTINUOUS
 10
19410.800000
 20
59799.900000
30
0.000000
  0
VERTEX
  8
1
  6
CONTINUOUS
 10
17707.800000
 20
60333.900000
30
0.000000
  0
VERTEX
  8
1
  6
CONTINUOUS
 10
16005.900000
 20
60790.900000
30
0.000000
  0
VERTEX
  8
1
  6
CONTINUOUS
 10
14963.900000
 20
61070.900000
30
0.000000
  0
VERTEX
  8
1
  6
CONTINUOUS
 10
13921.900000
 20
61298.900000
30
0.000000
  0
VERTEX
  8
1
  6
CONTINUOUS
 10
12854.900000
 20
61527.900000
30
0.000000
  0
VERTEX
  8
1
  6
CONTINUOUS
 10
11812.900000
 20
61756.900000
30
0.000000
  0
VERTEX
  8
1
  6
CONTINUOUS
 10
10771.900000
 20
61959.900000
30
0.000000
  0
VERTEX
  8
1
  6
CONTINUOUS
 10
9729.900000
 20
62137.900000
30
0.000000
  0
VERTEX
  8
1
  6
CONTINUOUS
 10
8661.900000
 20
62289.900000
30
0.000000
  0
VERTEX
  8
1
  6
CONTINUOUS
 10
7620.900000
 20
62417.900000
30
0.000000
  0
VERTEX
  8
1
  6
CONTINUOUS
 10
6578.900000
 20
62544.900000
30
0.000000
  0
VERTEX
  8
1
  6
CONTINUOUS
 10
5536.900000
 20
62645.900000
30
0.000000
  0
VERTEX
  8
1
  6
CONTINUOUS
 10
4470.000000
 20
62747.900000
30
0.000000
  0
VERTEX
  8
1
  6
CONTINUOUS
 10
3428.000000
 20
62823.900000
30
0.000000
  0
VERTEX
  8
1
  6
CONTINUOUS
 10
2386.000000
 20
62874.900000
30
0.000000
  0
VERTEX
  8
1
  6
CONTINUOUS
 10
1344.000000
 20
62899.900000
30
0.000000
  0
VERTEX
  8
1
  6
CONTINUOUS
 10
277.000000
 20
62925.900000
30
0.000000
  0
VERTEX
  8
1
  6
CONTINUOUS
 10
-765.000000
 20
62925.900000
30
0.000000
  0
VERTEX
  8
1
  6
CONTINUOUS
 10
-1806.000000
 20
62899.900000
30
0.000000
  0
VERTEX
  8
1
  6
CONTINUOUS
 10
-2848.000000
 20
62874.900000
30
0.000000
  0
VERTEX
  8
1
  6
CONTINUOUS
 10
-3890.000000
 20
62823.900000
30
0.000000
  0
VERTEX
  8
1
  6
CONTINUOUS
 10
-4957.000000
 20
62747.900000
30
0.000000
  0
VERTEX
  8
1
  6
CONTINUOUS
 10
-5998.900000
 20
62645.900000
30
0.000000
  0
VERTEX
  8
1
  6
CONTINUOUS
 10
-7040.900000
 20
62544.900000
30
0.000000
  0
VERTEX
  8
1
  6
CONTINUOUS
 10
-8082.900000
 20
62417.900000
30
0.000000
  0
VERTEX
  8
1
  6
CONTINUOUS
 10
-9124.900000
 20
62289.900000
30
0.000000
  0
VERTEX
  8
1
  6
CONTINUOUS
 10
-10165.900000
 20
62137.900000
30
0.000000
  0
VERTEX
  8
1
  6
CONTINUOUS
 10
-11207.900000
 20
61959.900000
30
0.000000
  0
VERTEX
  8
1
  6
CONTINUOUS
 10
-12274.900000
 20
61756.900000
30
0.000000
  0
VERTEX
  8
1
  6
CONTINUOUS
 10
-13316.900000
 20
61553.900000
30
0.000000
  0
VERTEX
  8
1
  6
CONTINUOUS
 10
-14358.900000
 20
61324.900000
30
0.000000
  0
VERTEX
  8
1
  6
CONTINUOUS
 10
-15400.900000
 20
61070.900000
30
0.000000
  0
VERTEX
  8
1
  6
CONTINUOUS
 10
-16442.800000
 20
60816.900000
30
0.000000
  0
VERTEX
  8
1
  6
CONTINUOUS
 10
-17483.800000
 20
60536.900000
30
0.000000
  0
VERTEX
  8
1
  6
CONTINUOUS
 10
-19160.800000
 20
60053.900000
30
0.000000
  0
VERTEX
  8
1
  6
CONTINUOUS
 10
-20812.800000
 20
59494.900000
30
0.000000
  0
VERTEX
  8
1
  6
CONTINUOUS
 10
-22438.800000
 20
58936.000000
30
0.000000
  0
VERTEX
  8
1
  6
CONTINUOUS
 10
-24039.800000
 20
58301.000000
30
0.000000
  0
VERTEX
  8
1
  6
CONTINUOUS
 10
-25615.800000
 20
57640.000000
30
0.000000
  0
VERTEX
  8
1
  6
CONTINUOUS
 10
-27165.700000
 20
56929.000000
30
0.000000
  0
VERTEX
  8
1
  6
CONTINUOUS
 10
-28715.700000
 20
56167.000000
30
0.000000
  0
VERTEX
  8
1
  6
CONTINUOUS
 10
-30214.700000
 20
55379.000000
30
0.000000
  0
VERTEX
  8
1
  6
CONTINUOUS
 10
-31688.700000
 20
54540.000000
30
0.000000
  0
VERTEX
  8
1
  6
CONTINUOUS
 10
-33136.700000
 20
53676.000000
30
0.000000
  0
VERTEX
  8
1
  6
CONTINUOUS
 10
-34559.700000
 20
52762.000000
30
0.000000
  0
VERTEX
  8
1
  6
CONTINUOUS
 10
-35956.700000
 20
51822.000000
30
0.000000
  0
VERTEX
  8
1
  6
CONTINUOUS
 10
-37329.700000
 20
50856.000000
30
0.000000
  0
VERTEX
  8
1
  6
CONTINUOUS
 10
-38675.600000
 20
49840.000000
30
0.000000
  0
VERTEX
  8
1
  6
CONTINUOUS
 10
-39971.600000
 20
48798.000000
30
0.000000
  0
VERTEX
  8
1
  6
CONTINUOUS
 10
-41242.600000
 20
47705.100000
30
0.000000
  0
VERTEX
  8
1
  6
CONTINUOUS
 10
-42512.600000
 20
46612.100000
30
0.000000
  0
VERTEX
  8
1
  6
CONTINUOUS
 10
-43732.600000
 20
45469.100000
30
0.000000
  0
VERTEX
  8
1
  6
CONTINUOUS
 10
-44901.600000
 20
44300.100000
30
0.000000
  0
VERTEX
  8
1
  6
CONTINUOUS
 10
-46070.600000
 20
43106.100000
30
0.000000
  0
VERTEX
  8
1
  6
CONTINUOUS
 10
-47188.600000
 20
41861.100000
30
0.000000
  0
VERTEX
  8
1
  6
CONTINUOUS
 10
-48255.600000
 20
40616.100000
30
0.000000
  0
SEQEND
  8
0
  0
POLYLINE
  8
1
  6
CONTINUOUS
 66
     1
 70
     0
 10
0.000000
 20
0.000000
30
0.000000
  0
VERTEX
  8
1
  6
CONTINUOUS
 10
-48255.600000
 20
40616.100000
30
0.000000
  0
VERTEX
  8
1
  6
CONTINUOUS
 10
-49322.500000
 20
39345.100000
30
0.000000
  0
VERTEX
  8
1
  6
CONTINUOUS
 10
-50339.500000
 20
38024.100000
30
0.000000
  0
VERTEX
  8
1
  6
CONTINUOUS
 10
-51330.500000
 20
36703.200000
30
0.000000
  0
VERTEX
  8
1
  6
CONTINUOUS
 10
-52270.500000
 20
35356.200000
30
0.000000
  0
VERTEX
  8
1
  6
CONTINUOUS
 10
-53184.500000
 20
33984.200000
30
0.000000
  0
VERTEX
  8
1
  6
CONTINUOUS
 10
-54048.500000
 20
32586.200000
30
0.000000
  0
VERTEX
  8
1
  6
CONTINUOUS
 10
-54887.500000
 20
31163.200000
30
0.000000
  0
VERTEX
  8
1
  6
CONTINUOUS
 10
-55700.500000
 20
29715.200000
30
0.000000
  0
VERTEX
  8
1
  6
CONTINUOUS
 10
-56462.500000
 20
28266.200000
30
0.000000
  0
VERTEX
  8
1
  6
CONTINUOUS
 10
-57174.500000
 20
26793.300000
30
0.000000
  0
VERTEX
  8
1
  6
CONTINUOUS
 10
-58190.500000
 20
24557.300000
30
0.000000
  0
VERTEX
  8
1
  6
CONTINUOUS
 10
-59105.400000
 20
22270.300000
30
0.000000
  0
VERTEX
  8
1
  6
CONTINUOUS
 10
-59918.400000
 20
19957.300000
30
0.000000
  0
VERTEX
  8
1
  6
CONTINUOUS
 10
-60655.400000
 20
17620.300000
30
0.000000
  0
VERTEX
  8
1
  6
CONTINUOUS
 10
-61290.400000
 20
15257.400000
30
0.000000
  0
VERTEX
  8
1
  6
CONTINUOUS
 10
-61824.400000
 20
12893.400000
30
0.000000
  0
VERTEX
  8
1
  6
CONTINUOUS
 10
-62281.400000
 20
10479.400000
30
0.000000
  0
VERTEX
  8
1
  6
CONTINUOUS
 10
-62637.400000
 20
8066.400000
30
0.000000
  0
VERTEX
  8
1
  6
CONTINUOUS
 10
-62891.400000
 20
5652.400000
30
0.000000
  0
VERTEX
  8
1
  6
CONTINUOUS
 10
-63069.400000
 20
3238.500000
30
0.000000
  0
VERTEX
  8
1
  6
CONTINUOUS
 10
-63145.400000
 20
798.500000
30
0.000000
  0
VERTEX
  8
1
  6
CONTINUOUS
 10
-63145.400000
 20
-1614.500000
30
0.000000
  0
VERTEX
  8
1
  6
CONTINUOUS
 10
-63044.400000
 20
-4028.500000
30
0.000000
  0
VERTEX
  8
1
  6
CONTINUOUS
 10
-62840.400000
 20
-6442.400000
30
0.000000
  0
VERTEX
  8
1
  6
CONTINUOUS
 10
-62535.400000
 20
-8830.400000
30
0.000000
  0
VERTEX
  8
1
  6
CONTINUOUS
 10
-62154.400000
 20
-11193.400000
30
0.000000
  0
VERTEX
  8
1
  6
CONTINUOUS
 10
-61824.400000
 20
-12947.400000
30
0.000000
  0
VERTEX
  8
1
  6
CONTINUOUS
 10
-61443.400000
 20
-14649.400000
30
0.000000
  0
VERTEX
  8
1
  6
CONTINUOUS
 10
-61011.400000
 20
-16351.300000
30
0.000000
  0
VERTEX
  8
1
  6
CONTINUOUS
 10
-60528.400000
 20
-18003.300000
30
0.000000
  0
VERTEX
  8
1
  6
CONTINUOUS
 10
-60020.400000
 20
-19655.300000
30
0.000000
  0
VERTEX
  8
1
  6
CONTINUOUS
 10
-59486.400000
 20
-21256.300000
30
0.000000
  0
VERTEX
  8
1
  6
CONTINUOUS
 10
-58876.500000
 20
-22856.300000
30
0.000000
  0
VERTEX
  8
1
  6
CONTINUOUS
 10
-58241.500000
 20
-24406.300000
30
0.000000
  0
VERTEX
  8
1
  6
CONTINUOUS
 10
-57580.500000
 20
-25956.300000
30
0.000000
  0
VERTEX
  8
1
  6
CONTINUOUS
 10
-56869.500000
 20
-27456.200000
30
0.000000
  0
VERTEX
  8
1
  6
CONTINUOUS
 10
-56132.500000
 20
-28955.200000
30
0.000000
  0
VERTEX
  8
1
  6
CONTINUOUS
 10
-55344.500000
 20
-30403.200000
30
0.000000
  0
VERTEX
  8
1
  6
CONTINUOUS
 10
-54531.500000
 20
-31852.200000
30
0.000000
  0
VERTEX
  8
1
  6
CONTINUOUS
 10
-53667.500000
 20
-33249.200000
30
0.000000
  0
VERTEX
  8
1
  6
CONTINUOUS
 10
-52778.500000
 20
-34621.200000
30
0.000000
  0
VERTEX
  8
1
  6
CONTINUOUS
 10
-51838.500000
 20
-35968.200000
30
0.000000
  0
VERTEX
  8
1
  6
CONTINUOUS
 10
-50898.500000
 20
-37289.200000
30
0.000000
  0
VERTEX
  8
1
  6
CONTINUOUS
 10
-49907.500000
 20
-38585.100000
30
0.000000
  0
VERTEX
  8
1
  6
CONTINUOUS
 10
-48865.500000
 20
-39856.100000
30
0.000000
  0
VERTEX
  8
1
  6
CONTINUOUS
 10
-47823.600000
 20
-41101.100000
30
0.000000
  0
VERTEX
  8
1
  6
CONTINUOUS
 10
-46730.600000
 20
-42295.100000
30
0.000000
  0
VERTEX
  8
1
  6
CONTINUOUS
 10
-45612.600000
 20
-43489.100000
30
0.000000
  0
VERTEX
  8
1
  6
CONTINUOUS
 10
-44469.600000
 20
-44633.100000
30
0.000000
  0
VERTEX
  8
1
  6
CONTINUOUS
 10
-43300.600000
 20
-45751.100000
30
0.000000
  0
VERTEX
  8
1
  6
CONTINUOUS
 10
-42080.600000
 20
-46843.100000
30
0.000000
  0
VERTEX
  8
1
  6
CONTINUOUS
 10
-40861.600000
 20
-47911.100000
30
0.000000
  0
VERTEX
  8
1
  6
CONTINUOUS
 10
-39590.600000
 20
-48953.000000
30
0.000000
  0
VERTEX
  8
1
  6
CONTINUOUS
 10
-38320.600000
 20
-49969.000000
30
0.000000
  0
VERTEX
  8
1
  6
CONTINUOUS
 10
-36998.700000
 20
-50934.000000
30
0.000000
  0
VERTEX
  8
1
  6
CONTINUOUS
 10
-35677.700000
 20
-51875.000000
30
0.000000
  0
VERTEX
  8
1
  6
CONTINUOUS
 10
-34305.700000
 20
-52789.000000
30
0.000000
  0
VERTEX
  8
1
  6
CONTINUOUS
 10
-32933.700000
 20
-53679.000000
30
0.000000
  0
VERTEX
  8
1
  6
CONTINUOUS
 10
-32120.700000
 20
-54187.000000
30
0.000000
  0
VERTEX
  8
1
  6
CONTINUOUS
 10
-31306.700000
 20
-54670.000000
30
0.000000
  0
VERTEX
  8
1
  6
CONTINUOUS
 10
-30468.700000
 20
-55178.000000
30
0.000000
  0
VERTEX
  8
1
  6
CONTINUOUS
 10
-29604.700000
 20
-55635.000000
30
0.000000
  0
VERTEX
  8
1
  6
CONTINUOUS
 10
-28715.700000
 20
-56093.000000
30
0.000000
  0
VERTEX
  8
1
  6
CONTINUOUS
 10
-27800.700000
 20
-56550.000000
30
0.000000
  0
VERTEX
  8
1
  6
CONTINUOUS
 10
-26885.700000
 20
-56982.000000
30
0.000000
  0
VERTEX
  8
1
  6
CONTINUOUS
 10
-25970.800000
 20
-57414.000000
30
0.000000
  0
VERTEX
  8
1
  6
CONTINUOUS
 10
-25005.800000
 20
-57821.000000
30
0.000000
  0
VERTEX
  8
1
  6
CONTINUOUS
 10
-24039.800000
 20
-58202.000000
30
0.000000
  0
VERTEX
  8
1
  6
CONTINUOUS
 10
-23074.800000
 20
-58608.000000
30
0.000000
  0
VERTEX
  8
1
  6
CONTINUOUS
 10
-22083.800000
 20
-58964.000000
30
0.000000
  0
VERTEX
  8
1
  6
CONTINUOUS
 10
-21092.800000
 20
-59319.900000
30
0.000000
  0
VERTEX
  8
1
  6
CONTINUOUS
 10
-20101.800000
 20
-59649.900000
30
0.000000
  0
VERTEX
  8
1
  6
CONTINUOUS
 10
-19084.800000
 20
-59979.900000
30
0.000000
  0
VERTEX
  8
1
  6
CONTINUOUS
 10
-18042.800000
 20
-60284.900000
30
0.000000
  0
VERTEX
  8
1
  6
CONTINUOUS
 10
-17026.800000
 20
-60589.900000
30
0.000000
  0
VERTEX
  8
1
  6
CONTINUOUS
 10
-15984.900000
 20
-60869.900000
30
0.000000
  0
VERTEX
  8
1
  6
CONTINUOUS
 10
-14942.900000
 20
-61123.900000
30
0.000000
  0
VERTEX
  8
1
  6
CONTINUOUS
 10
-13901.900000
 20
-61377.900000
30
0.000000
  0
VERTEX
  8
1
  6
CONTINUOUS
 10
-12859.900000
 20
-61606.900000
30
0.000000
  0
VERTEX
  8
1
  6
CONTINUOUS
 10
-11817.900000
 20
-61809.900000
30
0.000000
  0
VERTEX
  8
1
  6
CONTINUOUS
 10
-10750.900000
 20
-62012.900000
30
0.000000
  0
VERTEX
  8
1
  6
CONTINUOUS
 10
-9708.900000
 20
-62190.900000
30
0.000000
  0
VERTEX
  8
1
  6
CONTINUOUS
 10
-8641.900000
 20
-62343.900000
30
0.000000
  0
VERTEX
  8
1
  6
CONTINUOUS
 10
-7599.900000
 20
-62495.900000
30
0.000000
  0
VERTEX
  8
1
  6
CONTINUOUS
 10
-6557.900000
 20
-62597.900000
30
0.000000
  0
VERTEX
  8
1
  6
CONTINUOUS
 10
-5515.900000
 20
-62698.900000
30
0.000000
  0
VERTEX
  8
1
  6
CONTINUOUS
 10
-4474.000000
 20
-62800.900000
30
0.000000
  0
VERTEX
  8
1
  6
CONTINUOUS
 10
-3433.000000
 20
-62851.900000
30
0.000000
  0
VERTEX
  8
1
  6
CONTINUOUS
 10
-2416.000000
 20
-62902.900000
30
0.000000
  0
VERTEX
  8
1
  6
CONTINUOUS
 10
-1400.000000
 20
-62927.900000
30
0.000000
  0
SEQEND
  8
0
  0
POLYLINE
  8
1
  6
CONTINUOUS
 66
     1
 70
     0
 10
0.000000
 20
0.000000
30
0.000000
  0
VERTEX
  8
1
  6
CONTINUOUS
 10
45276.600000
 20
-28015.200000
30
0.000000
  0
VERTEX
  8
1
  6
CONTINUOUS
 10
45683.600000
 20
-28015.200000
30
0.000000
  0
VERTEX
  8
1
  6
CONTINUOUS
 10
46064.600000
 20
-28015.200000
30
0.000000
  0
VERTEX
  8
1
  6
CONTINUOUS
 10
46471.600000
 20
-28015.200000
30
0.000000
  0
VERTEX
  8
1
  6
CONTINUOUS
 10
46877.600000
 20
-28015.200000
30
0.000000
  0
VERTEX
  8
1
  6
CONTINUOUS
 10
47258.600000
 20
-28015.200000
30
0.000000
  0
VERTEX
  8
1
  6
CONTINUOUS
 10
47665.600000
 20
-28015.200000
30
0.000000
  0
VERTEX
  8
1
  6
CONTINUOUS
 10
48071.600000
 20
-28015.200000
30
0.000000
  0
VERTEX
  8
1
  6
CONTINUOUS
 10
48478.500000
 20
-28015.200000
30
0.000000
  0
VERTEX
  8
1
  6
CONTINUOUS
 10
48859.500000
 20
-27989.200000
30
0.000000
  0
VERTEX
  8
1
  6
CONTINUOUS
 10
49266.500000
 20
-27989.200000
30
0.000000
  0
VERTEX
  8
1
  6
CONTINUOUS
 10
49672.500000
 20
-27964.200000
30
0.000000
  0
VERTEX
  8
1
  6
CONTINUOUS
 10
50053.500000
 20
-27938.200000
30
0.000000
  0
VERTEX
  8
1
  6
CONTINUOUS
 10
50460.500000
 20
-27913.200000
30
0.000000
  0
VERTEX
  8
1
  6
CONTINUOUS
 10
50841.500000
 20
-27862.200000
30
0.000000
  0
VERTEX
  8
1
  6
CONTINUOUS
 10
51248.500000
 20
-27811.200000
30
0.000000
  0
VERTEX
  8
1
  6
CONTINUOUS
 10
51629.500000
 20
-27761.200000
30
0.000000
  0
VERTEX
  8
1
  6
CONTINUOUS
 10
51832.500000
 20
-27710.200000
30
0.000000
  0
VERTEX
  8
1
  6
CONTINUOUS
 10
52035.500000
 20
-27684.200000
30
0.000000
  0
VERTEX
  8
1
  6
CONTINUOUS
 10
52239.500000
 20
-27634.200000
30
0.000000
  0
VERTEX
  8
1
  6
CONTINUOUS
 10
52416.500000
 20
-27583.200000
30
0.000000
  0
VERTEX
  8
1
  6
CONTINUOUS
 10
52594.500000
 20
-27557.200000
30
0.000000
  0
VERTEX
  8
1
  6
CONTINUOUS
 10
52772.500000
 20
-27506.200000
30
0.000000
  0
VERTEX
  8
1
  6
CONTINUOUS
 10
52925.500000
 20
-27481.200000
30
0.000000
  0
VERTEX
  8
1
  6
CONTINUOUS
 10
53103.500000
 20
-27430.200000
30
0.000000
  0
VERTEX
  8
1
  6
CONTINUOUS
 10
53280.500000
 20
-27379.200000
30
0.000000
  0
VERTEX
  8
1
  6
CONTINUOUS
 10
53458.500000
 20
-27303.200000
30
0.000000
  0
VERTEX
  8
1
  6
CONTINUOUS
 10
53636.500000
 20
-27252.200000
30
0.000000
  0
VERTEX
  8
1
  6
CONTINUOUS
 10
53814.500000
 20
-27227.200000
30
0.000000
  0
VERTEX
  8
1
  6
CONTINUOUS
 10
53967.500000
 20
-27176.200000
30
0.000000
  0
VERTEX
  8
1
  6
CONTINUOUS
 10
54144.500000
 20
-27125.200000
30
0.000000
  0
VERTEX
  8
1
  6
CONTINUOUS
 10
54297.500000
 20
-27075.200000
30
0.000000
  0
VERTEX
  8
1
  6
CONTINUOUS
 10
54475.500000
 20
-27024.200000
30
0.000000
  0
VERTEX
  8
1
  6
CONTINUOUS
 10
54932.500000
 20
-26236.300000
30
0.000000
  0
VERTEX
  8
1
  6
CONTINUOUS
 10
55339.500000
 20
-25372.300000
30
0.000000
  0
VERTEX
  8
1
  6
CONTINUOUS
 10
55720.500000
 20
-24483.300000
30
0.000000
  0
VERTEX
  8
1
  6
CONTINUOUS
 10
56101.500000
 20
-23568.300000
30
0.000000
  0
VERTEX
  8
1
  6
CONTINUOUS
 10
56482.500000
 20
-22653.300000
30
0.000000
  0
VERTEX
  8
1
  6
CONTINUOUS
 10
56889.500000
 20
-21789.300000
30
0.000000
  0
VERTEX
  8
1
  6
CONTINUOUS
 10
57321.500000
 20
-20976.300000
30
0.000000
  0
VERTEX
  8
1
  6
CONTINUOUS
 10
57803.500000
 20
-20214.300000
30
0.000000
  0
VERTEX
  8
1
  6
CONTINUOUS
 10
57905.500000
 20
-19934.300000
30
0.000000
  0
VERTEX
  8
1
  6
CONTINUOUS
 10
57778.500000
 20
-19883.300000
30
0.000000
  0
VERTEX
  8
1
  6
CONTINUOUS
 10
57626.500000
 20
-19833.300000
30
0.000000
  0
VERTEX
  8
1
  6
CONTINUOUS
 10
57448.500000
 20
-19807.300000
30
0.000000
  0
VERTEX
  8
1
  6
CONTINUOUS
 10
57270.500000
 20
-19782.300000
30
0.000000
  0
VERTEX
  8
1
  6
CONTINUOUS
 10
57092.500000
 20
-19756.300000
30
0.000000
  0
VERTEX
  8
1
  6
CONTINUOUS
 10
56889.500000
 20
-19756.300000
30
0.000000
  0
VERTEX
  8
1
  6
CONTINUOUS
 10
56711.500000
 20
-19706.300000
30
0.000000
  0
VERTEX
  8
1
  6
CONTINUOUS
 10
56533.500000
 20
-19655.300000
30
0.000000
  0
VERTEX
  8
1
  6
CONTINUOUS
 10
56304.500000
 20
-19604.300000
30
0.000000
  0
VERTEX
  8
1
  6
CONTINUOUS
 10
56050.500000
 20
-19553.300000
30
0.000000
  0
VERTEX
  8
1
  6
CONTINUOUS
 10
55821.500000
 20
-19477.300000
30
0.000000
  0
VERTEX
  8
1
  6
CONTINUOUS
 10
55593.500000
 20
-19401.300000
30
0.000000
  0
VERTEX
  8
1
  6
CONTINUOUS
 10
55389.500000
 20
-19324.300000
30
0.000000
  0
VERTEX
  8
1
  6
CONTINUOUS
 10
55161.500000
 20
-19248.300000
30
0.000000
  0
VERTEX
  8
1
  6
CONTINUOUS
 10
54932.500000
 20
-19172.300000
30
0.000000
  0
VERTEX
  8
1
  6
CONTINUOUS
 10
54729.500000
 20
-19121.300000
30
0.000000
  0
VERTEX
  8
1
  6
CONTINUOUS
 10
54373.500000
 20
-18943.300000
30
0.000000
  0
VERTEX
  8
1
  6
CONTINUOUS
 10
53992.500000
 20
-18791.300000
30
0.000000
  0
VERTEX
  8
1
  6
CONTINUOUS
 10
53636.500000
 20
-18613.300000
30
0.000000
  0
VERTEX
  8
1
  6
CONTINUOUS
 10
53255.500000
 20
-18461.300000
30
0.000000
  0
VERTEX
  8
1
  6
CONTINUOUS
 10
52874.500000
 20
-18308.300000
30
0.000000
  0
VERTEX
  8
1
  6
CONTINUOUS
 10
52493.500000
 20
-18130.300000
30
0.000000
  0
VERTEX
  8
1
  6
CONTINUOUS
 10
52112.500000
 20
-17952.300000
30
0.000000
  0
VERTEX
  8
1
  6
CONTINUOUS
 10
51730.500000
 20
-17774.300000
30
0.000000
  0
VERTEX
  8
1
  6
CONTINUOUS
 10
51349.500000
 20
-17673.300000
30
0.000000
  0
VERTEX
  8
1
  6
CONTINUOUS
 10
50994.500000
 20
-17546.300000
30
0.000000
  0
VERTEX
  8
1
  6
CONTINUOUS
 10
50638.500000
 20
-17419.300000
30
0.000000
  0
VERTEX
  8
1
  6
CONTINUOUS
 10
50307.500000
 20
-17266.300000
30
0.000000
  0
VERTEX
  8
1
  6
CONTINUOUS
 10
49977.500000
 20
-17114.300000
30
0.000000
  0
VERTEX
  8
1
  6
CONTINUOUS
 10
49621.500000
 20
-16961.300000
30
0.000000
  0
VERTEX
  8
1
  6
CONTINUOUS
 10
49291.500000
 20
-16860.300000
30
0.000000
  0
VERTEX
  8
1
  6
CONTINUOUS
 10
48910.500000
 20
-16758.300000
30
0.000000
  0
VERTEX
  8
1
  6
CONTINUOUS
 10
48427.500000
 20
-16479.300000
30
0.000000
  0
VERTEX
  8
1
  6
CONTINUOUS
 10
48021.600000
 20
-16148.300000
30
0.000000
  0
VERTEX
  8
1
  6
CONTINUOUS
 10
47690.600000
 20
-15742.400000
30
0.000000
  0
VERTEX
  8
1
  6
CONTINUOUS
 10
47411.600000
 20
-15284.400000
30
0.000000
  0
VERTEX
  8
1
  6
CONTINUOUS
 10
47182.600000
 20
-14776.400000
30
0.000000
  0
VERTEX
  8
1
  6
CONTINUOUS
 10
46979.600000
 20
-14217.400000
30
0.000000
  0
VERTEX
  8
1
  6
CONTINUOUS
 10
46852.600000
 20
-13658.400000
30
0.000000
  0
VERTEX
  8
1
  6
CONTINUOUS
 10
46725.600000
 20
-13048.400000
30
0.000000
  0
VERTEX
  8
1
  6
CONTINUOUS
 10
46547.600000
 20
-10736.400000
30
0.000000
  0
VERTEX
  8
1
  6
CONTINUOUS
 10
46572.600000
 20
-8424.400000
30
0.000000
  0
VERTEX
  8
1
  6
CONTINUOUS
 10
46725.600000
 20
-6137.400000
30
0.000000
  0
VERTEX
  8
1
  6
CONTINUOUS
 10
47004.600000
 20
-3850.500000
30
0.000000
  0
VERTEX
  8
1
  6
CONTINUOUS
 10
47411.600000
 20
-3799.500000
30
0.000000
  0
VERTEX
  8
1
  6
CONTINUOUS
 10
47792.600000
 20
-3774.500000
30
0.000000
  0
VERTEX
  8
1
  6
CONTINUOUS
 10
48198.600000
 20
-3748.500000
30
0.000000
  0
VERTEX
  8
1
  6
CONTINUOUS
 10
48605.500000
 20
-3723.500000
30
0.000000
  0
VERTEX
  8
1
  6
CONTINUOUS
 10
49037.500000
 20
-3697.500000
30
0.000000
  0
VERTEX
  8
1
  6
CONTINUOUS
 10
49444.500000
 20
-3672.500000
30
0.000000
  0
VERTEX
  8
1
  6
CONTINUOUS
 10
49850.500000
 20
-3672.500000
30
0.000000
  0
VERTEX
  8
1
  6
CONTINUOUS
 10
50282.500000
 20
-3646.500000
30
0.000000
  0
VERTEX
  8
1
  6
CONTINUOUS
 10
50689.500000
 20
-3621.500000
30
0.000000
  0
VERTEX
  8
1
  6
CONTINUOUS
 10
51095.500000
 20
-3596.500000
30
0.000000
  0
VERTEX
  8
1
  6
CONTINUOUS
 10
51527.500000
 20
-3570.500000
30
0.000000
  0
VERTEX
  8
1
  6
CONTINUOUS
 10
51934.500000
 20
-3519.500000
30
0.000000
  0
VERTEX
  8
1
  6
CONTINUOUS
 10
52366.500000
 20
-3469.500000
30
0.000000
  0
VERTEX
  8
1
  6
CONTINUOUS
 10
52772.500000
 20
-3418.500000
30
0.000000
  0
VERTEX
  8
1
  6
CONTINUOUS
 10
53204.500000
 20
-3342.500000
30
0.000000
  0
SEQEND
  8
0
  0
POLYLINE
  8
1
  6
CONTINUOUS
 66
     1
 70
     0
 10
0.000000
 20
0.000000
30
0.000000
  0
VERTEX
  8
1
  6
CONTINUOUS
 10
53204.500000
 20
-3342.500000
30
0.000000
  0
VERTEX
  8
1
  6
CONTINUOUS
 10
53611.500000
 20
-3265.500000
30
0.000000
  0
VERTEX
  8
1
  6
CONTINUOUS
 10
54094.500000
 20
-3215.500000
30
0.000000
  0
VERTEX
  8
1
  6
CONTINUOUS
 10
54551.500000
 20
-3138.500000
30
0.000000
  0
VERTEX
  8
1
  6
CONTINUOUS
 10
55008.500000
 20
-3062.500000
30
0.000000
  0
VERTEX
  8
1
  6
CONTINUOUS
 10
55466.500000
 20
-2960.500000
30
0.000000
  0
VERTEX
  8
1
  6
CONTINUOUS
 10
55923.500000
 20
-2859.500000
30
0.000000
  0
VERTEX
  8
1
  6
CONTINUOUS
 10
56355.500000
 20
-2732.500000
30
0.000000
  0
VERTEX
  8
1
  6
CONTINUOUS
 10
56812.500000
 20
-2630.500000
30
0.000000
  0
VERTEX
  8
1
  6
CONTINUOUS
 10
57244.500000
 20
-2528.500000
30
0.000000
  0
VERTEX
  8
1
  6
CONTINUOUS
 10
57702.500000
 20
-2325.500000
30
0.000000
  0
VERTEX
  8
1
  6
CONTINUOUS
 10
58185.500000
 20
-2147.500000
30
0.000000
  0
VERTEX
  8
1
  6
CONTINUOUS
 10
58667.500000
 20
-2046.500000
30
0.000000
  0
VERTEX
  8
1
  6
CONTINUOUS
 10
59125.400000
 20
-1919.500000
30
0.000000
  0
VERTEX
  8
1
  6
CONTINUOUS
 10
59582.400000
 20
-1792.500000
30
0.000000
  0
VERTEX
  8
1
  6
CONTINUOUS
 10
60039.400000
 20
-1614.500000
30
0.000000
  0
VERTEX
  8
1
  6
CONTINUOUS
 10
60421.400000
 20
-1385.500000
30
0.000000
  0
VERTEX
  8
1
  6
CONTINUOUS
 10
60776.400000
 20
-1080.500000
30
0.000000
  0
VERTEX
  8
1
  6
CONTINUOUS
 10
60903.400000
 20
849.500000
30
0.000000
  0
VERTEX
  8
1
  6
CONTINUOUS
 10
60827.400000
 20
2780.500000
30
0.000000
  0
VERTEX
  8
1
  6
CONTINUOUS
 10
60751.400000
 20
4737.500000
30
0.000000
  0
VERTEX
  8
1
  6
CONTINUOUS
 10
60802.400000
 20
6643.400000
30
0.000000
  0
VERTEX
  8
1
  6
CONTINUOUS
 10
60395.400000
 20
6109.400000
30
0.000000
  0
VERTEX
  8
1
  6
CONTINUOUS
 10
59963.400000
 20
5601.400000
30
0.000000
  0
VERTEX
  8
1
  6
CONTINUOUS
 10
59531.400000
 20
5118.500000
30
0.000000
  0
VERTEX
  8
1
  6
CONTINUOUS
 10
59074.400000
 20
4661.500000
30
0.000000
  0
VERTEX
  8
1
  6
CONTINUOUS
 10
58617.500000
 20
4203.500000
30
0.000000
  0
VERTEX
  8
1
  6
CONTINUOUS
 10
58134.500000
 20
3771.500000
30
0.000000
  0
VERTEX
  8
1
  6
CONTINUOUS
 10
57651.500000
 20
3365.500000
30
0.000000
  0
VERTEX
  8
1
  6
CONTINUOUS
 10
57168.500000
 20
2984.500000
30
0.000000
  0
VERTEX
  8
1
  6
CONTINUOUS
 10
56635.500000
 20
2602.500000
30
0.000000
  0
VERTEX
  8
1
  6
CONTINUOUS
 10
56101.500000
 20
2247.500000
30
0.000000
  0
VERTEX
  8
1
  6
CONTINUOUS
 10
55567.500000
 20
1916.500000
30
0.000000
  0
VERTEX
  8
1
  6
CONTINUOUS
 10
54983.500000
 20
1611.500000
30
0.000000
  0
VERTEX
  8
1
  6
CONTINUOUS
 10
54398.500000
 20
1332.500000
30
0.000000
  0
VERTEX
  8
1
  6
CONTINUOUS
 10
53814.500000
 20
1078.500000
30
0.000000
  0
VERTEX
  8
1
  6
CONTINUOUS
 10
53179.500000
 20
849.500000
30
0.000000
  0
VERTEX
  8
1
  6
CONTINUOUS
 10
52544.500000
 20
620.500000
30
0.000000
  0
VERTEX
  8
1
  6
CONTINUOUS
 10
52264.500000
 20
570.500000
30
0.000000
  0
VERTEX
  8
1
  6
CONTINUOUS
 10
51959.500000
 20
493.500000
30
0.000000
  0
VERTEX
  8
1
  6
CONTINUOUS
 10
51680.500000
 20
443.500000
30
0.000000
  0
VERTEX
  8
1
  6
CONTINUOUS
 10
51400.500000
 20
366.500000
30
0.000000
  0
VERTEX
  8
1
  6
CONTINUOUS
 10
51121.500000
 20
315.500000
30
0.000000
  0
VERTEX
  8
1
  6
CONTINUOUS
 10
50841.500000
 20
239.500000
30
0.000000
  0
VERTEX
  8
1
  6
CONTINUOUS
 10
50562.500000
 20
163.500000
30
0.000000
  0
VERTEX
  8
1
  6
CONTINUOUS
 10
50282.500000
 20
112.500000
30
0.000000
  0
VERTEX
  8
1
  6
CONTINUOUS
 10
50003.500000
 20
36.500000
30
0.000000
  0
VERTEX
  8
1
  6
CONTINUOUS
 10
49723.500000
 20
-39.500000
30
0.000000
  0
VERTEX
  8
1
  6
CONTINUOUS
 10
49444.500000
 20
-90.500000
30
0.000000
  0
VERTEX
  8
1
  6
CONTINUOUS
 10
49164.500000
 20
-165.500000
30
0.000000
  0
VERTEX
  8
1
  6
CONTINUOUS
 10
48859.500000
 20
-216.500000
30
0.000000
  0
VERTEX
  8
1
  6
CONTINUOUS
 10
48580.500000
 20
-267.500000
30
0.000000
  0
VERTEX
  8
1
  6
CONTINUOUS
 10
48300.600000
 20
-318.500000
30
0.000000
  0
VERTEX
  8
1
  6
CONTINUOUS
 10
48021.600000
 20
-343.500000
30
0.000000
  0
VERTEX
  8
1
  6
CONTINUOUS
 10
48249.600000
 20
849.500000
30
0.000000
  0
VERTEX
  8
1
  6
CONTINUOUS
 10
48529.500000
 20
2069.500000
30
0.000000
  0
VERTEX
  8
1
  6
CONTINUOUS
 10
48910.500000
 20
3288.500000
30
0.000000
  0
VERTEX
  8
1
  6
CONTINUOUS
 10
49316.500000
 20
4559.500000
30
0.000000
  0
VERTEX
  8
1
  6
CONTINUOUS
 10
49748.500000
 20
5804.400000
30
0.000000
  0
VERTEX
  8
1
  6
CONTINUOUS
 10
50206.500000
 20
7049.400000
30
0.000000
  0
VERTEX
  8
1
  6
CONTINUOUS
 10
50689.500000
 20
8243.400000
30
0.000000
  0
VERTEX
  8
1
  6
CONTINUOUS
 10
51121.500000
 20
9412.400000
30
0.000000
  0
VERTEX
  8
1
  6
CONTINUOUS
 10
51476.500000
 20
10200.400000
30
0.000000
  0
VERTEX
  8
1
  6
CONTINUOUS
 10
51807.500000
 20
10988.400000
30
0.000000
  0
VERTEX
  8
1
  6
CONTINUOUS
 10
52162.500000
 20
11775.400000
30
0.000000
  0
VERTEX
  8
1
  6
CONTINUOUS
 10
52493.500000
 20
12538.400000
30
0.000000
  0
VERTEX
  8
1
  6
CONTINUOUS
 10
52848.500000
 20
13275.400000
30
0.000000
  0
VERTEX
  8
1
  6
CONTINUOUS
 10
53204.500000
 20
14011.400000
30
0.000000
  0
VERTEX
  8
1
  6
CONTINUOUS
 10
53560.500000
 20
14723.400000
30
0.000000
  0
VERTEX
  8
1
  6
CONTINUOUS
 10
53941.500000
 20
15434.400000
30
0.000000
  0
VERTEX
  8
1
  6
CONTINUOUS
 10
54322.500000
 20
16120.300000
30
0.000000
  0
VERTEX
  8
1
  6
CONTINUOUS
 10
54729.500000
 20
16807.300000
30
0.000000
  0
VERTEX
  8
1
  6
CONTINUOUS
 10
55135.500000
 20
17493.300000
30
0.000000
  0
VERTEX
  8
1
  6
CONTINUOUS
 10
55567.500000
 20
18153.300000
30
0.000000
  0
VERTEX
  8
1
  6
CONTINUOUS
 10
56025.500000
 20
18814.300000
30
0.000000
  0
VERTEX
  8
1
  6
CONTINUOUS
 10
56508.500000
 20
19449.300000
30
0.000000
  0
VERTEX
  8
1
  6
CONTINUOUS
 10
56990.500000
 20
20084.300000
30
0.000000
  0
VERTEX
  8
1
  6
CONTINUOUS
 10
57524.500000
 20
20694.300000
30
0.000000
  0
VERTEX
  8
1
  6
CONTINUOUS
 10
57448.500000
 20
21202.300000
30
0.000000
  0
VERTEX
  8
1
  6
CONTINUOUS
 10
57346.500000
 20
21685.300000
30
0.000000
  0
VERTEX
  8
1
  6
CONTINUOUS
 10
57219.500000
 20
22143.300000
30
0.000000
  0
VERTEX
  8
1
  6
CONTINUOUS
 10
57092.500000
 20
22600.300000
30
0.000000
  0
VERTEX
  8
1
  6
CONTINUOUS
 10
56914.500000
 20
23032.300000
30
0.000000
  0
VERTEX
  8
1
  6
CONTINUOUS
 10
56711.500000
 20
23464.300000
30
0.000000
  0
VERTEX
  8
1
  6
CONTINUOUS
 10
56482.500000
 20
23871.300000
30
0.000000
  0
VERTEX
  8
1
  6
CONTINUOUS
 10
56203.500000
 20
24252.300000
30
0.000000
  0
VERTEX
  8
1
  6
CONTINUOUS
 10
55618.500000
 20
25573.300000
30
0.000000
  0
VERTEX
  8
1
  6
CONTINUOUS
 10
54653.500000
 20
25192.300000
30
0.000000
  0
VERTEX
  8
1
  6
CONTINUOUS
 10
53712.500000
 20
24785.300000
30
0.000000
  0
VERTEX
  8
1
  6
CONTINUOUS
 10
52798.500000
 20
24353.300000
30
0.000000
  0
VERTEX
  8
1
  6
CONTINUOUS
 10
51883.500000
 20
23896.300000
30
0.000000
  0
VERTEX
  8
1
  6
CONTINUOUS
 10
51019.500000
 20
23413.300000
30
0.000000
  0
VERTEX
  8
1
  6
CONTINUOUS
 10
50155.500000
 20
22880.300000
30
0.000000
  0
VERTEX
  8
1
  6
CONTINUOUS
 10
49316.500000
 20
22346.300000
30
0.000000
  0
VERTEX
  8
1
  6
CONTINUOUS
 10
48478.500000
 20
21787.300000
30
0.000000
  0
VERTEX
  8
1
  6
CONTINUOUS
 10
47665.600000
 20
21177.300000
30
0.000000
  0
VERTEX
  8
1
  6
CONTINUOUS
 10
46852.600000
 20
20542.300000
30
0.000000
  0
VERTEX
  8
1
  6
CONTINUOUS
 10
46039.600000
 20
19881.300000
30
0.000000
  0
VERTEX
  8
1
  6
CONTINUOUS
 10
45200.600000
 20
19195.300000
30
0.000000
  0
VERTEX
  8
1
  6
CONTINUOUS
 10
44387.600000
 20
18484.300000
30
0.000000
  0
VERTEX
  8
1
  6
CONTINUOUS
 10
43548.600000
 20
17721.300000
30
0.000000
  0
SEQEND
  8
0
  0
POLYLINE
  8
1
  6
CONTINUOUS
 66
     1
 70
     0
 10
0.000000
 20
0.000000
30
0.000000
  0
VERTEX
  8
1
  6
CONTINUOUS
 10
43548.600000
 20
17721.300000
30
0.000000
  0
VERTEX
  8
1
  6
CONTINUOUS
 10
42710.600000
 20
16959.300000
30
0.000000
  0
VERTEX
  8
1
  6
CONTINUOUS
 10
41871.600000
 20
16146.300000
30
0.000000
  0
VERTEX
  8
1
  6
CONTINUOUS
 10
40474.600000
 20
14596.400000
30
0.000000
  0
VERTEX
  8
1
  6
CONTINUOUS
 10
39152.600000
 20
12944.400000
30
0.000000
  0
VERTEX
  8
1
  6
CONTINUOUS
 10
37882.600000
 20
11191.400000
30
0.000000
  0
VERTEX
  8
1
  6
CONTINUOUS
 10
36662.700000
 20
9336.400000
30
0.000000
  0
VERTEX
  8
1
  6
CONTINUOUS
 10
35544.700000
 20
7430.400000
30
0.000000
  0
VERTEX
  8
1
  6
CONTINUOUS
 10
34502.700000
 20
5423.400000
30
0.000000
  0
VERTEX
  8
1
  6
CONTINUOUS
 10
33562.700000
 20
3365.500000
30
0.000000
  0
VERTEX
  8
1
  6
CONTINUOUS
 10
32724.700000
 20
1256.500000
30
0.000000
  0
VERTEX
  8
1
  6
CONTINUOUS
 10
32012.700000
 20
-902.500000
30
0.000000
  0
VERTEX
  8
1
  6
CONTINUOUS
 10
31402.700000
 20
-3113.500000
30
0.000000
  0
VERTEX
  8
1
  6
CONTINUOUS
 10
30921.700000
 20
-5349.500000
30
0.000000
  0
VERTEX
  8
1
  6
CONTINUOUS
 10
30590.700000
 20
-7610.400000
30
0.000000
  0
VERTEX
  8
1
  6
CONTINUOUS
 10
30387.700000
 20
-9897.400000
30
0.000000
  0
VERTEX
  8
1
  6
CONTINUOUS
 10
30362.700000
 20
-12184.400000
30
0.000000
  0
VERTEX
  8
1
  6
CONTINUOUS
 10
30463.700000
 20
-14497.400000
30
0.000000
  0
VERTEX
  8
1
  6
CONTINUOUS
 10
30768.700000
 20
-16783.300000
30
0.000000
  0
VERTEX
  8
1
  6
CONTINUOUS
 10
30971.700000
 20
-17495.300000
30
0.000000
  0
VERTEX
  8
1
  6
CONTINUOUS
 10
31199.700000
 20
-18156.300000
30
0.000000
  0
VERTEX
  8
1
  6
CONTINUOUS
 10
31453.700000
 20
-18816.300000
30
0.000000
  0
VERTEX
  8
1
  6
CONTINUOUS
 10
31707.700000
 20
-19452.300000
30
0.000000
  0
VERTEX
  8
1
  6
CONTINUOUS
 10
31961.700000
 20
-20061.300000
30
0.000000
  0
VERTEX
  8
1
  6
CONTINUOUS
 10
32241.700000
 20
-20671.300000
30
0.000000
  0
VERTEX
  8
1
  6
CONTINUOUS
 10
32546.700000
 20
-21230.300000
30
0.000000
  0
VERTEX
  8
1
  6
CONTINUOUS
 10
32876.700000
 20
-21789.300000
30
0.000000
  0
VERTEX
  8
1
  6
CONTINUOUS
 10
33207.700000
 20
-22323.300000
30
0.000000
  0
VERTEX
  8
1
  6
CONTINUOUS
 10
33588.700000
 20
-22831.300000
30
0.000000
  0
VERTEX
  8
1
  6
CONTINUOUS
 10
33969.700000
 20
-23339.300000
30
0.000000
  0
VERTEX
  8
1
  6
CONTINUOUS
 10
34401.700000
 20
-23822.300000
30
0.000000
  0
VERTEX
  8
1
  6
CONTINUOUS
 10
34858.700000
 20
-24279.300000
30
0.000000
  0
VERTEX
  8
1
  6
CONTINUOUS
 10
35316.700000
 20
-24711.300000
30
0.000000
  0
VERTEX
  8
1
  6
CONTINUOUS
 10
35849.700000
 20
-25118.300000
30
0.000000
  0
VERTEX
  8
1
  6
CONTINUOUS
 10
36383.700000
 20
-25524.300000
30
0.000000
  0
VERTEX
  8
1
  6
CONTINUOUS
 10
36637.700000
 20
-25677.300000
30
0.000000
  0
VERTEX
  8
1
  6
CONTINUOUS
 10
36916.700000
 20
-25829.300000
30
0.000000
  0
VERTEX
  8
1
  6
CONTINUOUS
 10
37196.700000
 20
-25982.300000
30
0.000000
  0
VERTEX
  8
1
  6
CONTINUOUS
 10
37475.700000
 20
-26109.300000
30
0.000000
  0
VERTEX
  8
1
  6
CONTINUOUS
 10
37780.600000
 20
-26261.300000
30
0.000000
  0
VERTEX
  8
1
  6
CONTINUOUS
 10
38060.600000
 20
-26388.300000
30
0.000000
  0
VERTEX
  8
1
  6
CONTINUOUS
 10
38365.600000
 20
-26515.300000
30
0.000000
  0
VERTEX
  8
1
  6
CONTINUOUS
 10
38670.600000
 20
-26617.300000
30
0.000000
  0
VERTEX
  8
1
  6
CONTINUOUS
 10
38975.600000
 20
-26744.300000
30
0.000000
  0
VERTEX
  8
1
  6
CONTINUOUS
 10
39280.600000
 20
-26846.200000
30
0.000000
  0
VERTEX
  8
1
  6
CONTINUOUS
 10
39584.600000
 20
-26947.200000
30
0.000000
  0
VERTEX
  8
1
  6
CONTINUOUS
 10
39889.600000
 20
-27049.200000
30
0.000000
  0
VERTEX
  8
1
  6
CONTINUOUS
 10
40194.600000
 20
-27151.200000
30
0.000000
  0
VERTEX
  8
1
  6
CONTINUOUS
 10
40525.600000
 20
-27252.200000
30
0.000000
  0
VERTEX
  8
1
  6
CONTINUOUS
 10
40830.600000
 20
-27354.200000
30
0.000000
  0
VERTEX
  8
1
  6
CONTINUOUS
 10
41134.600000
 20
-27456.200000
30
0.000000
  0
VERTEX
  8
1
  6
CONTINUOUS
 10
41363.600000
 20
-27481.200000
30
0.000000
  0
VERTEX
  8
1
  6
CONTINUOUS
 10
41592.600000
 20
-27506.200000
30
0.000000
  0
VERTEX
  8
1
  6
CONTINUOUS
 10
41821.600000
 20
-27532.200000
30
0.000000
  0
VERTEX
  8
1
  6
CONTINUOUS
 10
42049.600000
 20
-27557.200000
30
0.000000
  0
VERTEX
  8
1
  6
CONTINUOUS
 10
42278.600000
 20
-27608.200000
30
0.000000
  0
VERTEX
  8
1
  6
CONTINUOUS
 10
42481.600000
 20
-27659.200000
30
0.000000
  0
VERTEX
  8
1
  6
CONTINUOUS
 10
42710.600000
 20
-27684.200000
30
0.000000
  0
VERTEX
  8
1
  6
CONTINUOUS
 10
42913.600000
 20
-27735.200000
30
0.000000
  0
VERTEX
  8
1
  6
CONTINUOUS
 10
43218.600000
 20
-27761.200000
30
0.000000
  0
VERTEX
  8
1
  6
CONTINUOUS
 10
43523.600000
 20
-27811.200000
30
0.000000
  0
VERTEX
  8
1
  6
CONTINUOUS
 10
43828.600000
 20
-27837.200000
30
0.000000
  0
VERTEX
  8
1
  6
CONTINUOUS
 10
44107.600000
 20
-27862.200000
30
0.000000
  0
VERTEX
  8
1
  6
CONTINUOUS
 10
44412.600000
 20
-27913.200000
30
0.000000
  0
VERTEX
  8
1
  6
CONTINUOUS
 10
44692.600000
 20
-27938.200000
30
0.000000
  0
VERTEX
  8
1
  6
CONTINUOUS
 10
44971.600000
 20
-27989.200000
30
0.000000
  0
VERTEX
  8
1
  6
CONTINUOUS
 10
45276.600000
 20
-28015.200000
30
0.000000
  0
SEQEND
  8
0
  0
POLYLINE
  8
1
  6
CONTINUOUS
 66
     1
 70
     0
 10
0.000000
 20
0.000000
30
0.000000
  0
VERTEX
  8
1
  6
CONTINUOUS
 10
-2772.000000
 20
-27761.200000
30
0.000000
  0
VERTEX
  8
1
  6
CONTINUOUS
 10
-2238.000000
 20
-27761.200000
30
0.000000
  0
VERTEX
  8
1
  6
CONTINUOUS
 10
-1705.000000
 20
-27761.200000
30
0.000000
  0
VERTEX
  8
1
  6
CONTINUOUS
 10
-1171.000000
 20
-27761.200000
30
0.000000
  0
VERTEX
  8
1
  6
CONTINUOUS
 10
-638.000000
 20
-27786.200000
30
0.000000
  0
VERTEX
  8
1
  6
CONTINUOUS
 10
-104.000000
 20
-27786.200000
30
0.000000
  0
VERTEX
  8
1
  6
CONTINUOUS
 10
430.000000
 20
-27786.200000
30
0.000000
  0
VERTEX
  8
1
  6
CONTINUOUS
 10
963.000000
 20
-27786.200000
30
0.000000
  0
VERTEX
  8
1
  6
CONTINUOUS
 10
1497.000000
 20
-27786.200000
30
0.000000
  0
VERTEX
  8
1
  6
CONTINUOUS
 10
2030.000000
 20
-27761.200000
30
0.000000
  0
VERTEX
  8
1
  6
CONTINUOUS
 10
2589.000000
 20
-27761.200000
30
0.000000
  0
VERTEX
  8
1
  6
CONTINUOUS
 10
3123.000000
 20
-27735.200000
30
0.000000
  0
VERTEX
  8
1
  6
CONTINUOUS
 10
3657.000000
 20
-27684.200000
30
0.000000
  0
VERTEX
  8
1
  6
CONTINUOUS
 10
4190.000000
 20
-27659.200000
30
0.000000
  0
VERTEX
  8
1
  6
CONTINUOUS
 10
4749.000000
 20
-27608.200000
30
0.000000
  0
VERTEX
  8
1
  6
CONTINUOUS
 10
5283.000000
 20
-27532.200000
30
0.000000
  0
VERTEX
  8
1
  6
CONTINUOUS
 10
5816.900000
 20
-27456.200000
30
0.000000
  0
VERTEX
  8
1
  6
CONTINUOUS
 10
6171.900000
 20
-27430.200000
30
0.000000
  0
VERTEX
  8
1
  6
CONTINUOUS
 10
6527.900000
 20
-27379.200000
30
0.000000
  0
VERTEX
  8
1
  6
CONTINUOUS
 10
6857.900000
 20
-27303.200000
30
0.000000
  0
VERTEX
  8
1
  6
CONTINUOUS
 10
7213.900000
 20
-27227.200000
30
0.000000
  0
VERTEX
  8
1
  6
CONTINUOUS
 10
7543.900000
 20
-27176.200000
30
0.000000
  0
VERTEX
  8
1
  6
CONTINUOUS
 10
7899.900000
 20
-27100.200000
30
0.000000
  0
VERTEX
  8
1
  6
CONTINUOUS
 10
8230.900000
 20
-27024.200000
30
0.000000
  0
VERTEX
  8
1
  6
CONTINUOUS
 10
8560.900000
 20
-26947.200000
30
0.000000
  0
VERTEX
  8
1
  6
CONTINUOUS
 10
9348.900000
 20
-26719.300000
30
0.000000
  0
VERTEX
  8
1
  6
CONTINUOUS
 10
10135.900000
 20
-26490.300000
30
0.000000
  0
VERTEX
  8
1
  6
CONTINUOUS
 10
10898.900000
 20
-26261.300000
30
0.000000
  0
VERTEX
  8
1
  6
CONTINUOUS
 10
11634.900000
 20
-26007.300000
30
0.000000
  0
VERTEX
  8
1
  6
CONTINUOUS
 10
12371.900000
 20
-25728.300000
30
0.000000
  0
VERTEX
  8
1
  6
CONTINUOUS
 10
13083.900000
 20
-25423.300000
30
0.000000
  0
VERTEX
  8
1
  6
CONTINUOUS
 10
13769.900000
 20
-25093.300000
30
0.000000
  0
VERTEX
  8
1
  6
CONTINUOUS
 10
14455.900000
 20
-24762.300000
30
0.000000
  0
VERTEX
  8
1
  6
CONTINUOUS
 10
15090.900000
 20
-24381.300000
30
0.000000
  0
VERTEX
  8
1
  6
CONTINUOUS
 10
15725.900000
 20
-23974.300000
30
0.000000
  0
VERTEX
  8
1
  6
CONTINUOUS
 10
16335.800000
 20
-23543.300000
30
0.000000
  0
VERTEX
  8
1
  6
CONTINUOUS
 10
16920.800000
 20
-23060.300000
30
0.000000
  0
VERTEX
  8
1
  6
CONTINUOUS
 10
17479.800000
 20
-22552.300000
30
0.000000
  0
VERTEX
  8
1
  6
CONTINUOUS
 10
17987.800000
 20
-21993.300000
30
0.000000
  0
VERTEX
  8
1
  6
CONTINUOUS
 10
18495.800000
 20
-21383.300000
30
0.000000
  0
VERTEX
  8
1
  6
CONTINUOUS
 10
18978.800000
 20
-20747.300000
30
0.000000
  0
VERTEX
  8
1
  6
CONTINUOUS
 10
20223.800000
 20
-17800.300000
30
0.000000
  0
VERTEX
  8
1
  6
CONTINUOUS
 10
21189.800000
 20
-14827.400000
30
0.000000
  0
VERTEX
  8
1
  6
CONTINUOUS
 10
21900.800000
 20
-11778.400000
30
0.000000
  0
VERTEX
  8
1
  6
CONTINUOUS
 10
22434.800000
 20
-8678.400000
30
0.000000
  0
VERTEX
  8
1
  6
CONTINUOUS
 10
22764.800000
 20
-5552.400000
30
0.000000
  0
VERTEX
  8
1
  6
CONTINUOUS
 10
22967.800000
 20
-2401.500000
30
0.000000
  0
VERTEX
  8
1
  6
CONTINUOUS
 10
23018.800000
 20
798.500000
30
0.000000
  0
VERTEX
  8
1
  6
CONTINUOUS
 10
22993.800000
 20
4000.500000
30
0.000000
  0
VERTEX
  8
1
  6
CONTINUOUS
 10
22891.800000
 20
7227.400000
30
0.000000
  0
VERTEX
  8
1
  6
CONTINUOUS
 10
22739.800000
 20
10454.400000
30
0.000000
  0
VERTEX
  8
1
  6
CONTINUOUS
 10
22586.800000
 20
13681.400000
30
0.000000
  0
VERTEX
  8
1
  6
CONTINUOUS
 10
22459.800000
 20
16908.300000
30
0.000000
  0
VERTEX
  8
1
  6
CONTINUOUS
 10
22383.800000
 20
20110.300000
30
0.000000
  0
VERTEX
  8
1
  6
CONTINUOUS
 10
22357.800000
 20
23312.300000
30
0.000000
  0
VERTEX
  8
1
  6
CONTINUOUS
 10
22459.800000
 20
26488.300000
30
0.000000
  0
VERTEX
  8
1
  6
CONTINUOUS
 10
22688.800000
 20
29613.200000
30
0.000000
  0
VERTEX
  8
1
  6
CONTINUOUS
 10
13439.900000
 20
29664.200000
30
0.000000
  0
VERTEX
  8
1
  6
CONTINUOUS
 10
10186.900000
 20
29664.200000
30
0.000000
  0
VERTEX
  8
1
  6
CONTINUOUS
 10
9932.900000
 20
26869.200000
30
0.000000
  0
VERTEX
  8
1
  6
CONTINUOUS
 10
9830.900000
 20
24023.300000
30
0.000000
  0
VERTEX
  8
1
  6
CONTINUOUS
 10
9805.900000
 20
21126.300000
30
0.000000
  0
VERTEX
  8
1
  6
CONTINUOUS
 10
9881.900000
 20
18230.300000
30
0.000000
  0
VERTEX
  8
1
  6
CONTINUOUS
 10
9983.900000
 20
15333.400000
30
0.000000
  0
VERTEX
  8
1
  6
CONTINUOUS
 10
10135.900000
 20
12411.400000
30
0.000000
  0
VERTEX
  8
1
  6
CONTINUOUS
 10
10288.900000
 20
9463.400000
30
0.000000
  0
VERTEX
  8
1
  6
CONTINUOUS
 10
10389.900000
 20
6566.400000
30
0.000000
  0
VERTEX
  8
1
  6
CONTINUOUS
 10
10466.900000
 20
3670.500000
30
0.000000
  0
VERTEX
  8
1
  6
CONTINUOUS
 10
10440.900000
 20
773.500000
30
0.000000
  0
VERTEX
  8
1
  6
CONTINUOUS
 10
10313.900000
 20
-2046.500000
30
0.000000
  0
VERTEX
  8
1
  6
CONTINUOUS
 10
10059.900000
 20
-4866.500000
30
0.000000
  0
VERTEX
  8
1
  6
CONTINUOUS
 10
9627.900000
 20
-7610.400000
30
0.000000
  0
VERTEX
  8
1
  6
CONTINUOUS
 10
9043.900000
 20
-10304.400000
30
0.000000
  0
VERTEX
  8
1
  6
CONTINUOUS
 10
8230.900000
 20
-12947.400000
30
0.000000
  0
VERTEX
  8
1
  6
CONTINUOUS
 10
7188.900000
 20
-15513.400000
30
0.000000
  0
VERTEX
  8
1
  6
CONTINUOUS
 10
6705.900000
 20
-15920.400000
30
0.000000
  0
VERTEX
  8
1
  6
CONTINUOUS
 10
6197.900000
 20
-16301.300000
30
0.000000
  0
VERTEX
  8
1
  6
CONTINUOUS
 10
5663.900000
 20
-16631.300000
30
0.000000
  0
VERTEX
  8
1
  6
CONTINUOUS
 10
5105.000000
 20
-16911.300000
30
0.000000
  0
VERTEX
  8
1
  6
CONTINUOUS
 10
4521.000000
 20
-17139.300000
30
0.000000
  0
VERTEX
  8
1
  6
CONTINUOUS
 10
3936.000000
 20
-17368.300000
30
0.000000
  0
VERTEX
  8
1
  6
CONTINUOUS
 10
3326.000000
 20
-17520.300000
30
0.000000
  0
VERTEX
  8
1
  6
CONTINUOUS
 10
2717.000000
 20
-17673.300000
30
0.000000
  0
VERTEX
  8
1
  6
CONTINUOUS
 10
2081.000000
 20
-17774.300000
30
0.000000
  0
VERTEX
  8
1
  6
CONTINUOUS
 10
1446.000000
 20
-17876.300000
30
0.000000
  0
VERTEX
  8
1
  6
CONTINUOUS
 10
811.000000
 20
-17927.300000
30
0.000000
  0
VERTEX
  8
1
  6
CONTINUOUS
 10
150.000000
 20
-17952.300000
30
0.000000
  0
VERTEX
  8
1
  6
CONTINUOUS
 10
-485.000000
 20
-17978.300000
30
0.000000
  0
VERTEX
  8
1
  6
CONTINUOUS
 10
-1120.000000
 20
-17978.300000
30
0.000000
  0
VERTEX
  8
1
  6
CONTINUOUS
 10
-1756.000000
 20
-17952.300000
30
0.000000
  0
VERTEX
  8
1
  6
CONTINUOUS
 10
-2391.000000
 20
-17927.300000
30
0.000000
  0
VERTEX
  8
1
  6
CONTINUOUS
 10
-2594.000000
 20
-17851.300000
30
0.000000
  0
VERTEX
  8
1
  6
CONTINUOUS
 10
-2797.000000
 20
-17800.300000
30
0.000000
  0
VERTEX
  8
1
  6
CONTINUOUS
 10
-3001.000000
 20
-17724.300000
30
0.000000
  0
VERTEX
  8
1
  6
CONTINUOUS
 10
-3204.000000
 20
-17673.300000
30
0.000000
  0
VERTEX
  8
1
  6
CONTINUOUS
 10
-3407.000000
 20
-17622.300000
30
0.000000
  0
VERTEX
  8
1
  6
CONTINUOUS
 10
-3585.000000
 20
-17571.300000
30
0.000000
  0
VERTEX
  8
1
  6
CONTINUOUS
 10
-3788.000000
 20
-17520.300000
30
0.000000
  0
VERTEX
  8
1
  6
CONTINUOUS
 10
-3966.000000
 20
-17470.300000
30
0.000000
  0
VERTEX
  8
1
  6
CONTINUOUS
 10
-4297.000000
 20
-17368.300000
30
0.000000
  0
VERTEX
  8
1
  6
CONTINUOUS
 10
-4627.000000
 20
-17241.300000
30
0.000000
  0
SEQEND
  8
0
  0
POLYLINE
  8
1
  6
CONTINUOUS
 66
     1
 70
     0
 10
0.000000
 20
0.000000
30
0.000000
  0
VERTEX
  8
1
  6
CONTINUOUS
 10
-4627.000000
 20
-17241.300000
30
0.000000
  0
VERTEX
  8
1
  6
CONTINUOUS
 10
-4932.000000
 20
-17114.300000
30
0.000000
  0
VERTEX
  8
1
  6
CONTINUOUS
 10
-5237.000000
 20
-16987.300000
30
0.000000
  0
VERTEX
  8
1
  6
CONTINUOUS
 10
-5515.900000
 20
-16834.300000
30
0.000000
  0
VERTEX
  8
1
  6
CONTINUOUS
 10
-5795.900000
 20
-16682.300000
30
0.000000
  0
VERTEX
  8
1
  6
CONTINUOUS
 10
-6074.900000
 20
-16504.300000
30
0.000000
  0
VERTEX
  8
1
  6
CONTINUOUS
 10
-6328.900000
 20
-16326.300000
30
0.000000
  0
VERTEX
  8
1
  6
CONTINUOUS
 10
-6583.900000
 20
-16148.300000
30
0.000000
  0
VERTEX
  8
1
  6
CONTINUOUS
 10
-6837.900000
 20
-15970.400000
30
0.000000
  0
VERTEX
  8
1
  6
CONTINUOUS
 10
-7091.900000
 20
-15742.400000
30
0.000000
  0
VERTEX
  8
1
  6
CONTINUOUS
 10
-7319.900000
 20
-15538.400000
30
0.000000
  0
VERTEX
  8
1
  6
CONTINUOUS
 10
-7548.900000
 20
-15310.400000
30
0.000000
  0
VERTEX
  8
1
  6
CONTINUOUS
 10
-7777.900000
 20
-15081.400000
30
0.000000
  0
VERTEX
  8
1
  6
CONTINUOUS
 10
-8005.900000
 20
-14852.400000
30
0.000000
  0
VERTEX
  8
1
  6
CONTINUOUS
 10
-8234.900000
 20
-14598.400000
30
0.000000
  0
VERTEX
  8
1
  6
CONTINUOUS
 10
-9301.900000
 20
-12616.400000
30
0.000000
  0
VERTEX
  8
1
  6
CONTINUOUS
 10
-9962.900000
 20
-10482.400000
30
0.000000
  0
VERTEX
  8
1
  6
CONTINUOUS
 10
-10292.900000
 20
-8297.400000
30
0.000000
  0
VERTEX
  8
1
  6
CONTINUOUS
 10
-10369.900000
 20
-6035.400000
30
0.000000
  0
VERTEX
  8
1
  6
CONTINUOUS
 10
-10343.900000
 20
-3748.500000
30
0.000000
  0
VERTEX
  8
1
  6
CONTINUOUS
 10
-10242.900000
 20
-1461.500000
30
0.000000
  0
VERTEX
  8
1
  6
CONTINUOUS
 10
-10191.900000
 20
798.500000
30
0.000000
  0
VERTEX
  8
1
  6
CONTINUOUS
 10
-10292.900000
 20
3009.500000
30
0.000000
  0
VERTEX
  8
1
  6
CONTINUOUS
 10
-10318.900000
 20
29613.200000
30
0.000000
  0
VERTEX
  8
1
  6
CONTINUOUS
 10
-22184.800000
 20
29664.200000
30
0.000000
  0
VERTEX
  8
1
  6
CONTINUOUS
 10
-22184.800000
 20
24303.300000
30
0.000000
  0
VERTEX
  8
1
  6
CONTINUOUS
 10
-22235.800000
 20
18966.300000
30
0.000000
  0
VERTEX
  8
1
  6
CONTINUOUS
 10
-22286.800000
 20
13605.400000
30
0.000000
  0
VERTEX
  8
1
  6
CONTINUOUS
 10
-22311.800000
 20
8243.400000
30
0.000000
  0
VERTEX
  8
1
  6
CONTINUOUS
 10
-22311.800000
 20
2882.500000
30
0.000000
  0
VERTEX
  8
1
  6
CONTINUOUS
 10
-22260.800000
 20
-2503.500000
30
0.000000
  0
VERTEX
  8
1
  6
CONTINUOUS
 10
-22108.800000
 20
-7865.400000
30
0.000000
  0
VERTEX
  8
1
  6
CONTINUOUS
 10
-21829.800000
 20
-13226.400000
30
0.000000
  0
VERTEX
  8
1
  6
CONTINUOUS
 10
-21625.800000
 20
-14192.400000
30
0.000000
  0
VERTEX
  8
1
  6
CONTINUOUS
 10
-21371.800000
 20
-15132.400000
30
0.000000
  0
VERTEX
  8
1
  6
CONTINUOUS
 10
-21066.800000
 20
-16047.400000
30
0.000000
  0
VERTEX
  8
1
  6
CONTINUOUS
 10
-20710.800000
 20
-16936.300000
30
0.000000
  0
VERTEX
  8
1
  6
CONTINUOUS
 10
-20304.800000
 20
-17774.300000
30
0.000000
  0
VERTEX
  8
1
  6
CONTINUOUS
 10
-19872.800000
 20
-18613.300000
30
0.000000
  0
VERTEX
  8
1
  6
CONTINUOUS
 10
-19364.800000
 20
-19401.300000
30
0.000000
  0
VERTEX
  8
1
  6
CONTINUOUS
 10
-18830.800000
 20
-20138.300000
30
0.000000
  0
VERTEX
  8
1
  6
CONTINUOUS
 10
-18271.800000
 20
-20874.300000
30
0.000000
  0
VERTEX
  8
1
  6
CONTINUOUS
 10
-17661.800000
 20
-21561.300000
30
0.000000
  0
VERTEX
  8
1
  6
CONTINUOUS
 10
-17026.800000
 20
-22221.300000
30
0.000000
  0
VERTEX
  8
1
  6
CONTINUOUS
 10
-16365.800000
 20
-22856.300000
30
0.000000
  0
VERTEX
  8
1
  6
CONTINUOUS
 10
-15679.900000
 20
-23441.300000
30
0.000000
  0
VERTEX
  8
1
  6
CONTINUOUS
 10
-14968.900000
 20
-24000.300000
30
0.000000
  0
VERTEX
  8
1
  6
CONTINUOUS
 10
-14231.900000
 20
-24534.300000
30
0.000000
  0
VERTEX
  8
1
  6
CONTINUOUS
 10
-13469.900000
 20
-25016.300000
30
0.000000
  0
VERTEX
  8
1
  6
CONTINUOUS
 10
-13087.900000
 20
-25220.300000
30
0.000000
  0
VERTEX
  8
1
  6
CONTINUOUS
 10
-12706.900000
 20
-25423.300000
30
0.000000
  0
VERTEX
  8
1
  6
CONTINUOUS
 10
-12300.900000
 20
-25601.300000
30
0.000000
  0
VERTEX
  8
1
  6
CONTINUOUS
 10
-11893.900000
 20
-25779.300000
30
0.000000
  0
VERTEX
  8
1
  6
CONTINUOUS
 10
-11487.900000
 20
-25931.300000
30
0.000000
  0
VERTEX
  8
1
  6
CONTINUOUS
 10
-11080.900000
 20
-26084.300000
30
0.000000
  0
VERTEX
  8
1
  6
CONTINUOUS
 10
-10674.900000
 20
-26211.300000
30
0.000000
  0
VERTEX
  8
1
  6
CONTINUOUS
 10
-10242.900000
 20
-26338.300000
30
0.000000
  0
VERTEX
  8
1
  6
CONTINUOUS
 10
-9835.900000
 20
-26465.300000
30
0.000000
  0
VERTEX
  8
1
  6
CONTINUOUS
 10
-9403.900000
 20
-26566.300000
30
0.000000
  0
VERTEX
  8
1
  6
CONTINUOUS
 10
-8971.900000
 20
-26693.300000
30
0.000000
  0
VERTEX
  8
1
  6
CONTINUOUS
 10
-8539.900000
 20
-26795.300000
30
0.000000
  0
VERTEX
  8
1
  6
CONTINUOUS
 10
-8133.900000
 20
-26897.200000
30
0.000000
  0
VERTEX
  8
1
  6
CONTINUOUS
 10
-7701.900000
 20
-26998.200000
30
0.000000
  0
VERTEX
  8
1
  6
CONTINUOUS
 10
-7269.900000
 20
-27100.200000
30
0.000000
  0
VERTEX
  8
1
  6
CONTINUOUS
 10
-6837.900000
 20
-27202.200000
30
0.000000
  0
VERTEX
  8
1
  6
CONTINUOUS
 10
-6532.900000
 20
-27202.200000
30
0.000000
  0
VERTEX
  8
1
  6
CONTINUOUS
 10
-6227.900000
 20
-27227.200000
30
0.000000
  0
VERTEX
  8
1
  6
CONTINUOUS
 10
-5922.900000
 20
-27278.200000
30
0.000000
  0
VERTEX
  8
1
  6
CONTINUOUS
 10
-5617.900000
 20
-27329.200000
30
0.000000
  0
VERTEX
  8
1
  6
CONTINUOUS
 10
-5338.000000
 20
-27379.200000
30
0.000000
  0
VERTEX
  8
1
  6
CONTINUOUS
 10
-5059.000000
 20
-27430.200000
30
0.000000
  0
VERTEX
  8
1
  6
CONTINUOUS
 10
-4779.000000
 20
-27481.200000
30
0.000000
  0
VERTEX
  8
1
  6
CONTINUOUS
 10
-4500.000000
 20
-27532.200000
30
0.000000
  0
VERTEX
  8
1
  6
CONTINUOUS
 10
-4271.000000
 20
-27557.200000
30
0.000000
  0
VERTEX
  8
1
  6
CONTINUOUS
 10
-4043.000000
 20
-27583.200000
30
0.000000
  0
VERTEX
  8
1
  6
CONTINUOUS
 10
-3814.000000
 20
-27608.200000
30
0.000000
  0
VERTEX
  8
1
  6
CONTINUOUS
 10
-3585.000000
 20
-27608.200000
30
0.000000
  0
VERTEX
  8
1
  6
CONTINUOUS
 10
-3382.000000
 20
-27634.200000
30
0.000000
  0
VERTEX
  8
1
  6
CONTINUOUS
 10
-3179.000000
 20
-27659.200000
30
0.000000
  0
VERTEX
  8
1
  6
CONTINUOUS
 10
-2975.000000
 20
-27710.200000
30
0.000000
  0
VERTEX
  8
1
  6
CONTINUOUS
 10
-2772.000000
 20
-27761.200000
30
0.000000
  0
SEQEND
  8
0
  0
POLYLINE
  8
1
  6
CONTINUOUS
 66
     1
 70
     0
 10
0.000000
 20
0.000000
30
0.000000
  0
VERTEX
  8
1
  6
CONTINUOUS
 10
86695.200000
 20
-26261.300000
30
0.000000
  0
VERTEX
  8
1
  6
CONTINUOUS
 10
125571.800000
 20
-26261.300000
30
0.000000
  0
VERTEX
  8
1
  6
CONTINUOUS
 10
125622.800000
 20
-15564.400000
30
0.000000
  0
VERTEX
  8
1
  6
CONTINUOUS
 10
98764.100000
 20
-15488.400000
30
0.000000
  0
VERTEX
  8
1
  6
CONTINUOUS
 10
98612.100000
 20
-14471.400000
30
0.000000
  0
VERTEX
  8
1
  6
CONTINUOUS
 10
98612.100000
 20
-13353.400000
30
0.000000
  0
VERTEX
  8
1
  6
CONTINUOUS
 10
98612.100000
 20
-12235.400000
30
0.000000
  0
VERTEX
  8
1
  6
CONTINUOUS
 10
98586.100000
 20
-11117.400000
30
0.000000
  0
VERTEX
  8
1
  6
CONTINUOUS
 10
98561.100000
 20
29613.200000
30
0.000000
  0
VERTEX
  8
1
  6
CONTINUOUS
 10
86695.200000
 20
29664.200000
30
0.000000
  0
VERTEX
  8
1
  6
CONTINUOUS
 10
86644.200000
 20
1383.500000
30
0.000000
  0
VERTEX
  8
1
  6
CONTINUOUS
 10
86644.200000
 20
-26211.300000
30
0.000000
  0
VERTEX
  8
1
  6
CONTINUOUS
 10
86644.200000
 20
-26211.300000
30
0.000000
  0
VERTEX
  8
1
  6
CONTINUOUS
 10
86669.200000
 20
-26236.300000
30
0.000000
  0
VERTEX
  8
1
  6
CONTINUOUS
 10
86695.200000
 20
-26261.300000
30
0.000000
  0
VERTEX
  8
1
  6
CONTINUOUS
 10
86695.200000
 20
-26261.300000
30
0.000000
  0
SEQEND
  8
0
  0
POLYLINE
  8
1
  6
CONTINUOUS
 66
     1
 70
     0
 10
0.000000
 20
0.000000
30
0.000000
  0
VERTEX
  8
1
  6
CONTINUOUS
 10
62072.400000
 20
8929.400000
30
0.000000
  0
VERTEX
  8
1
  6
CONTINUOUS
 10
62555.400000
 20
9641.400000
30
0.000000
  0
VERTEX
  8
1
  6
CONTINUOUS
 10
63063.400000
 20
10378.400000
30
0.000000
  0
VERTEX
  8
1
  6
CONTINUOUS
 10
63521.400000
 20
11140.400000
30
0.000000
  0
VERTEX
  8
1
  6
CONTINUOUS
 10
63978.400000
 20
11953.400000
30
0.000000
  0
VERTEX
  8
1
  6
CONTINUOUS
 10
64410.400000
 20
12766.400000
30
0.000000
  0
VERTEX
  8
1
  6
CONTINUOUS
 10
64817.400000
 20
13605.400000
30
0.000000
  0
VERTEX
  8
1
  6
CONTINUOUS
 10
65198.400000
 20
14469.400000
30
0.000000
  0
VERTEX
  8
1
  6
CONTINUOUS
 10
65528.400000
 20
15384.400000
30
0.000000
  0
VERTEX
  8
1
  6
CONTINUOUS
 10
65833.400000
 20
16273.300000
30
0.000000
  0
VERTEX
  8
1
  6
CONTINUOUS
 10
66087.400000
 20
17213.300000
30
0.000000
  0
VERTEX
  8
1
  6
CONTINUOUS
 10
66290.400000
 20
18153.300000
30
0.000000
  0
VERTEX
  8
1
  6
CONTINUOUS
 10
66443.400000
 20
19119.300000
30
0.000000
  0
VERTEX
  8
1
  6
CONTINUOUS
 10
66519.400000
 20
20084.300000
30
0.000000
  0
VERTEX
  8
1
  6
CONTINUOUS
 10
66544.400000
 20
21050.300000
30
0.000000
  0
VERTEX
  8
1
  6
CONTINUOUS
 10
66494.400000
 20
22041.300000
30
0.000000
  0
VERTEX
  8
1
  6
CONTINUOUS
 10
66367.400000
 20
23032.300000
30
0.000000
  0
VERTEX
  8
1
  6
CONTINUOUS
 10
66316.400000
 20
23312.300000
30
0.000000
  0
VERTEX
  8
1
  6
CONTINUOUS
 10
66240.400000
 20
23566.300000
30
0.000000
  0
VERTEX
  8
1
  6
CONTINUOUS
 10
66138.400000
 20
23794.300000
30
0.000000
  0
VERTEX
  8
1
  6
CONTINUOUS
 10
66011.400000
 20
24023.300000
30
0.000000
  0
VERTEX
  8
1
  6
CONTINUOUS
 10
65833.400000
 20
24201.300000
30
0.000000
  0
VERTEX
  8
1
  6
CONTINUOUS
 10
65655.400000
 20
24379.300000
30
0.000000
  0
VERTEX
  8
1
  6
CONTINUOUS
 10
65477.400000
 20
24557.300000
30
0.000000
  0
VERTEX
  8
1
  6
CONTINUOUS
 10
65249.400000
 20
24684.300000
30
0.000000
  0
VERTEX
  8
1
  6
CONTINUOUS
 10
64766.400000
 20
24862.300000
30
0.000000
  0
VERTEX
  8
1
  6
CONTINUOUS
 10
64232.400000
 20
24938.300000
30
0.000000
  0
VERTEX
  8
1
  6
CONTINUOUS
 10
63699.400000
 20
24938.300000
30
0.000000
  0
VERTEX
  8
1
  6
CONTINUOUS
 10
63165.400000
 20
24862.300000
30
0.000000
  0
VERTEX
  8
1
  6
CONTINUOUS
 10
62657.400000
 20
24734.300000
30
0.000000
  0
VERTEX
  8
1
  6
CONTINUOUS
 10
62149.400000
 20
24582.300000
30
0.000000
  0
VERTEX
  8
1
  6
CONTINUOUS
 10
61666.400000
 20
24379.300000
30
0.000000
  0
VERTEX
  8
1
  6
CONTINUOUS
 10
61234.400000
 20
24175.300000
30
0.000000
  0
VERTEX
  8
1
  6
CONTINUOUS
 10
60878.400000
 20
23921.300000
30
0.000000
  0
VERTEX
  8
1
  6
CONTINUOUS
 10
60548.400000
 20
23642.300000
30
0.000000
  0
VERTEX
  8
1
  6
CONTINUOUS
 10
60192.400000
 20
23337.300000
30
0.000000
  0
VERTEX
  8
1
  6
CONTINUOUS
 10
59862.400000
 20
23032.300000
30
0.000000
  0
VERTEX
  8
1
  6
CONTINUOUS
 10
59557.400000
 20
22702.300000
30
0.000000
  0
VERTEX
  8
1
  6
CONTINUOUS
 10
59277.400000
 20
22371.300000
30
0.000000
  0
VERTEX
  8
1
  6
CONTINUOUS
 10
59023.500000
 20
22041.300000
30
0.000000
  0
VERTEX
  8
1
  6
CONTINUOUS
 10
58794.500000
 20
21711.300000
30
0.000000
  0
VERTEX
  8
1
  6
CONTINUOUS
 10
59353.400000
 20
20135.300000
30
0.000000
  0
VERTEX
  8
1
  6
CONTINUOUS
 10
59862.400000
 20
18534.300000
30
0.000000
  0
VERTEX
  8
1
  6
CONTINUOUS
 10
60319.400000
 20
16959.300000
30
0.000000
  0
VERTEX
  8
1
  6
CONTINUOUS
 10
60751.400000
 20
15358.400000
30
0.000000
  0
VERTEX
  8
1
  6
CONTINUOUS
 10
61132.400000
 20
13732.400000
30
0.000000
  0
VERTEX
  8
1
  6
CONTINUOUS
 10
61488.400000
 20
12131.400000
30
0.000000
  0
VERTEX
  8
1
  6
CONTINUOUS
 10
61793.400000
 20
10530.400000
30
0.000000
  0
VERTEX
  8
1
  6
CONTINUOUS
 10
62047.400000
 20
8929.400000
30
0.000000
  0
VERTEX
  8
1
  6
CONTINUOUS
 10
62047.400000
 20
8929.400000
30
0.000000
  0
VERTEX
  8
1
  6
CONTINUOUS
 10
62072.400000
 20
8929.400000
30
0.000000
  0
VERTEX
  8
1
  6
CONTINUOUS
 10
62072.400000
 20
8929.400000
30
0.000000
  0
VERTEX
  8
1
  6
CONTINUOUS
 10
62072.400000
 20
8929.400000
30
0.000000
  0
SEQEND
  8
0
  0
ENDBLK
  8
0
  0
ENDSEC
  0
SECTION
  2
ENTITIES
  0
POLYLINE
  8
1
  6
DASHED
 66
     1
 70
     0
 210
0.031397
 220
-0.408135
 230
-0.912381
 10
0.000000
 20
0.000000
30
13141977.936445
  0
VERTEX
  8
1
  6
DASHED
 10
-24996040.032746
 20
-9849306.712291
30
13141977.936445
  0
VERTEX
  8
1
  6
DASHED
 10
-25034069.882593
 20
-9849697.300486
30
13141791.738193
  0
VERTEX
  8
1
  6
DASHED
 10
-25070945.512058
 20
-9850053.930825
30
13141873.191548
  0
VERTEX
  8
1
  6
DASHED
 10
-25116700.156706
 20
-9850649.241093
30
13142220.979227
  0
VERTEX
  8
1
  6
DASHED
 10
-25134352.983398
 20
-9852547.702136
30
13141841.293461
  0
VERTEX
  8
1
  6
DASHED
 10
-25156085.299351
 20
-9852266.176643
30
13142736.138500
  0
VERTEX
  8
1
  6
DASHED
 10
-25178241.380652
 20
-9854830.473911
30
13141827.228699
  0
VERTEX
  8
1
  6
DASHED
 10
-25338209.167481
 20
-9866078.233056
30
13141940.919437
  0
SEQEND
  8
0
  0
POLYLINE
  8
1
  6
DASHED
 66
     1
 70
     0
 210
1.000000
 220
0.000000
 230
0.000000
 10
0.000000
 20
0.000000
30
-25636098.300000
  0
VERTEX
  8
1
  6
DASHED
 10
1663973.300000
 20
-16026750.500000
30
-25636098.300000
  0
VERTEX
  8
1
  6
DASHED
 10
1663723.300000
 20
-16026770.500000
30
-25565006.900000
  0
SEQEND
  8
0
  0
POLYLINE
  8
1
  6
DASHED
 66
     1
 70
     0
 210
-0.020403
 220
0.998875
 230
-0.042799
 10
0.000000
 20
0.000000
30
2882598.640438
  0
VERTEX
  8
1
  6
DASHED
 10
25932661.970536
 20
-15931197.097261
30
2882598.640438
  0
VERTEX
  8
1
  6
DASHED
 10
25933802.127977
 20
-15931419.923137
30
2883014.026339
  0
VERTEX
  8
1
  6
DASHED
 10
25992385.992499
 20
-15943058.065678
30
2882598.640438
  0
VERTEX
  8
1
  6
DASHED
 10
26009670.606451
 20
-15943040.271069
30
2883014.026339
  0
SEQEND
  8
0
  0
POLYLINE
  8
1
  6
DASHED
 66
     1
 70
     0
 210
-0.028159
 220
-0.044543
 230
0.998611
 10
0.000000
 20
0.000000
30
-15368413.184952
  0
VERTEX
  8
1
  6
DASHED
 10
-22954729.762000
 20
-13356162.151084
30
-15368413.184952
  0
VERTEX
  8
1
  6
DASHED
 10
-22965421.291775
 20
-13350080.230380
30
-15368413.184952
  0
VERTEX
  8
1
  6
DASHED
 10
-22986443.509637
 20
-13360913.829537
30
-15368413.184952
  0
SEQEND
  8
0
  0
POLYLINE
  8
1
  6
CONTINUOUS
 66
     1
 70
     0
 210
0.993711
 220
0.017567
 230
-0.110591
 10
0.000000
 20
0.000000
30
-24157573.538592
  0
VERTEX
  8
1
  6
CONTINUOUS
 10
2151081.787387
 20
-18838834.245189
30
-24157573.538592
  0
VERTEX
  8
1
  6
CONTINUOUS
 10
2202149.014442
 20
-18839407.245196
30
-24157922.439677
  0
VERTEX
  8
1
  6
CONTINUOUS
 10
2242427.041035
 20
-18839494.270073
30
-24157345.457268
  0
VERTEX
  8
1
  6
CONTINUOUS
 10
2258157.349145
 20
-18839385.138874
30
-24156546.459418
  0
VERTEX
  8
1
  6
CONTINUOUS
 10
2266687.835602
 20
-18839546.346276
30
-24158085.634468
  0
VERTEX
  8
1
  6
CONTINUOUS
 10
2306119.078578
 20
-18839255.455174
30
-24157735.634350
  0
SEQEND
  8
0
  0
POLYLINE
  8
1
  6
CONTINUOUS
 66
     1
 70
     0
 210
0.046496
 220
-0.007998
 230
-0.998886
 10
0.000000
 20
0.000000
30
14807597.360523
  0
VERTEX
  8
1
  6
CONTINUOUS
 10
-2361137.871645
 20
-26508171.323836
30
14807597.360523
  0
VERTEX
  8
1
  6
CONTINUOUS
 10
-2440156.367750
 20
-26494382.737911
30
14807837.453376
  0
VERTEX
  8
1
  6
CONTINUOUS
 10
-2453490.459554
 20
-26561670.418063
30
14808129.142936
  0
VERTEX
  8
1
  6
CONTINUOUS
 10
-2461353.622128
 20
-26602839.237099
30
14806194.703658
  0
VERTEX
  8
1
  6
CONTINUOUS
 10
-2442227.114545
 20
-26606099.290127
30
14807284.212278
  0
VERTEX
  8
1
  6
CONTINUOUS
 10
-2427562.395112
 20
-26608177.298171
30
14807677.412710
  0
VERTEX
  8
1
  6
CONTINUOUS
 10
-2409956.762494
 20
-26611614.133219
30
14808688.393568
  0
VERTEX
  8
1
  6
CONTINUOUS
 10
-2381819.578143
 20
-26616034.040606
30
14807747.621166
  0
SEQEND
  8
0
  0
POLYLINE
  8
1
  6
CONTINUOUS
 66
     1
 70
     0
 210
-0.021083
 220
-0.026109
 230
0.999437
 10
0.000000
 20
0.000000
30
-15543209.957622
  0
VERTEX
  8
1
  6
CONTINUOUS
 10
-21445424.939210
 20
-15223968.936677
30
-15543209.957622
  0
VERTEX
  8
1
  6
CONTINUOUS
 10
-21437787.156781
 20
-15232515.380935
30
-15542762.698098
  0
VERTEX
  8
1
  6
CONTINUOUS
 10
-21354815.111821
 20
-15163376.610912
30
-15543209.957622
  0
VERTEX
  8
1
  6
CONTINUOUS
 10
-21361895.074875
 20
-15154908.095982
30
-15542762.698098
  0
SEQEND
  8
0
  0
POLYLINE
  8
1
  6
CONTINUOUS
 66
     1
 70
     0
 210
0.025943
 220
-0.007317
 230
-0.999637
 10
0.000000
 20
0.000000
30
15352006.651155
  0
VERTEX
  8
1
  6
CONTINUOUS
 10
-5050155.737334
 20
-25813520.532791
30
15352006.651155
  0
VERTEX
  8
1
  6
CONTINUOUS
 10
-5065900.946482
 20
-25809080.606877
30
15351966.113699
  0
VERTEX
  8
1
  6
CONTINUOUS
 10
-5095410.310355
 20
-25911629.252047
30
15352006.651155
  0
VERTEX
  8
1
  6
CONTINUOUS
 10
-5080825.030649
 20
-25916478.954910
30
15351966.113699
  0
SEQEND
  8
0
  0
POLYLINE
  8
1
  6
CONTINUOUS
 66
     1
 70
     0
 210
-0.309766
 220
-0.181614
 230
-0.933307
 10
0.000000
 20
0.000000
30
22638302.959795
  0
VERTEX
  8
1
  6
CONTINUOUS
 10
-14793903.944720
 20
14160965.164194
30
22638302.959795
  0
VERTEX
  8
1
  6
CONTINUOUS
 10
-14782637.070588
 20
14144496.250763
30
22632267.259233
  0
VERTEX
  8
1
  6
CONTINUOUS
 10
-14754435.476714
 20
14160076.520679
30
22638229.356717
  0
VERTEX
  8
1
  6
CONTINUOUS
 10
-14765990.849784
 20
14182396.375691
30
22632348.992923
  0
VERTEX
  8
1
  6
CONTINUOUS
 10
-14793757.935309
 20
14161194.930495
30
22638112.352059
  0
SEQEND
  8
0
  0
POLYLINE
  8
1
  6
CONTINUOUS
 66
     1
 70
     0
 210
0.753240
 220
-0.021608
 230
-0.657390
 10
0.000000
 20
0.000000
30
-8742748.205053
  0
VERTEX
  8
1
  6
CONTINUOUS
 10
1305238.030688
 20
-28899661.628574
30
-8742748.205053
  0
VERTEX
  8
1
  6
CONTINUOUS
 10
1208794.264213
 20
-28897426.191243
30
-8742121.006727
  0
VERTEX
  8
1
  6
CONTINUOUS
 10
1208616.484666
 20
-28901589.441468
30
-8746847.449091
  0
VERTEX
  8
1
  6
CONTINUOUS
 10
1200294.758445
 20
-28901454.277845
30
-8746692.514415
  0
VERTEX
  8
1
  6
CONTINUOUS
 10
1200507.948970
 20
-28897478.858241
30
-8742135.590488
  0
VERTEX
  8
1
  6
CONTINUOUS
 10
1145248.214067
 20
-28896310.678236
30
-8742914.606669
  0
VERTEX
  8
1
  6
CONTINUOUS
 10
1049103.683636
 20
-28894609.138649
30
-8741908.970714
  0
VERTEX
  8
1
  6
CONTINUOUS
 10
942378.290192
 20
-28893229.066014
30
-8741424.093000
  0
VERTEX
  8
1
  6
CONTINUOUS
 10
939361.306150
 20
-28893626.680743
30
-8741879.868805
  0
VERTEX
  8
1
  6
CONTINUOUS
 10
937417.972466
 20
-28893616.010706
30
-8741867.638010
  0
SEQEND
  8
0
  0
POLYLINE
  8
1
  6
CONTINUOUS
 66
     1
 70
     0
 210
0.109061
 220
-0.076837
 230
-0.991061
 10
0.000000
 20
0.000000
30
12917011.242835
  0
VERTEX
  8
1
  6
CONTINUOUS
 10
-13464042.096920
 20
-24322298.335213
30
12917011.242835
  0
VERTEX
  8
1
  6
CONTINUOUS
 10
-13466331.615308
 20
-24320549.868423
30
12917226.328508
  0
VERTEX
  8
1
  6
CONTINUOUS
 10
-13468855.764822
 20
-24319028.392128
30
12917239.123077
  0
VERTEX
  8
1
  6
CONTINUOUS
 10
-13473378.035491
 20
-24316805.774119
30
12917174.464625
  0
VERTEX
  8
1
  6
CONTINUOUS
 10
-13475685.734818
 20
-24314802.282360
30
12917413.890768
  0
VERTEX
  8
1
  6
CONTINUOUS
 10
-13479536.340144
 20
-24311924.074898
30
12917397.021718
  0
VERTEX
  8
1
  6
CONTINUOUS
 10
-13484016.539490
 20
-24309128.622374
30
12917237.638383
  0
VERTEX
  8
1
  6
CONTINUOUS
 10
-13487407.397227
 20
-24308666.796128
30
12917289.716163
  0
VERTEX
  8
1
  6
CONTINUOUS
 10
-13490608.863934
 20
-24308877.042218
30
12917251.223134
  0
VERTEX
  8
1
  6
CONTINUOUS
 10
-13494918.369600
 20
-24308705.095689
30
12917274.369432
  0
VERTEX
  8
1
  6
CONTINUOUS
 10
-13497894.973912
 20
-24308226.281249
30
12917338.824247
  0
VERTEX
  8
1
  6
CONTINUOUS
 10
-13500392.694928
 20
-24309437.456436
30
12917175.783900
  0
VERTEX
  8
1
  6
CONTINUOUS
 10
-13503807.907652
 20
-24309517.498983
30
12917549.142904
  0
SEQEND
  8
0
  0
POLYLINE
  8
1
  6
CONTINUOUS
 66
     1
 70
     0
 210
-0.111931
 220
-0.000125
 230
0.993716
 10
0.000000
 20
0.000000
30
-13036535.479537
  0
VERTEX
  8
1
  6
CONTINUOUS
 10
-1873400.891862
 20
-27594102.780018
30
-13036535.479537
  0
VERTEX
  8
1
  6
CONTINUOUS
 10
-1880015.035339
 20
-27591627.035904
30
-13036602.613852
  0
VERTEX
  8
1
  6
CONTINUOUS
 10
-1886184.153019
 20
-27590573.396690
30
-13036721.294503
  0
VERTEX
  8
1
  6
CONTINUOUS
 10
-1887633.114329
 20
-27592936.533303
30
-13036455.113643
  0
VERTEX
  8
1
  6
CONTINUOUS
 10
-1891694.875785
 20
-27591567.644987
30
-13036609.303573
  0
VERTEX
  8
1
  6
CONTINUOUS
 10
-1894416.897087
 20
-27591318.574713
30
-13036637.358549
  0
VERTEX
  8
1
  6
CONTINUOUS
 10
-1898162.302831
 20
-27593016.021082
30
-13036506.640293
  0
VERTEX
  8
1
  6
CONTINUOUS
 10
-1901248.375877
 20
-27593995.480130
30
-13036648.298675
  0
SEQEND
  8
0
  0
POLYLINE
  8
1
  6
CONTINUOUS
 66
     1
 70
     0
 210
1.000000
 220
0.000000
 230
0.000000
 10
0.000000
 20
0.000000
30
-25965624.200000
  0
VERTEX
  8
1
  6
CONTINUOUS
 10
1843144.300000
 20
-16042877.700000
30
-25965624.200000
  0
VERTEX
  8
1
  6
CONTINUOUS
 10
1843077.100000
 20
-16042877.700000
30
-25963911.800000
  0
SEQEND
  8
0
  0
POLYLINE
  8
1
  6
CONTINUOUS
 66
     1
 70
     0
 210
-0.168534
 220
-0.026127
 230
-0.985350
 10
0.000000
 20
0.000000
30
20135346.829694
  0
VERTEX
  8
1
  6
CONTINUOUS
 10
-5798939.457176
 20
22267482.298998
30
20135346.829694
  0
VERTEX
  8
1
  6
CONTINUOUS
 10
-5746321.259704
 20
22274983.652959
30
20136452.056707
  0
VERTEX
  8
1
  6
CONTINUOUS
 10
-5713135.187934
 20
22280029.675490
30
20136959.475645
  0
VERTEX
  8
1
  6
CONTINUOUS
 10
-5694512.728576
 20
22283066.030862
30
20136631.106778
  0
VERTEX
  8
1
  6
CONTINUOUS
 10
-5637664.410240
 20
22291853.269758
30
20135478.357399
  0
VERTEX
  8
1
  6
CONTINUOUS
 10
-5629528.924695
 20
22303021.965866
30
20137472.461828
  0
VERTEX
  8
1
  6
CONTINUOUS
 10
-5626096.084482
 20
22301260.156959
30
20137167.522750
  0
SEQEND
  8
0
  0
POLYLINE
  8
1
  6
CONTINUOUS
 66
     1
 70
     0
 210
-0.239272
 220
0.028912
 230
0.970522
 10
0.000000
 20
0.000000
30
-9279895.468807
  0
VERTEX
  8
1
  6
CONTINUOUS
 10
1418943.312083
 20
-29229972.167607
30
-9279895.468807
  0
VERTEX
  8
1
  6
CONTINUOUS
 10
1414933.554318
 20
-29229366.171335
30
-9280045.957349
  0
VERTEX
  8
1
  6
CONTINUOUS
 10
1412359.820067
 20
-29228625.499586
30
-9280229.890184
  0
VERTEX
  8
1
  6
CONTINUOUS
 10
1407987.383371
 20
-29227755.269527
30
-9280445.996551
  0
VERTEX
  8
1
  6
CONTINUOUS
 10
1404249.483046
 20
-29228117.653872
30
-9280356.004757
  0
VERTEX
  8
1
  6
CONTINUOUS
 10
1401074.104096
 20
-29229527.405097
30
-9280016.221506
  0
VERTEX
  8
1
  6
CONTINUOUS
 10
1395866.146850
 20
-29229637.032426
30
-9279988.997482
  0
VERTEX
  8
1
  6
CONTINUOUS
 10
1390954.529665
 20
-29229905.067814
30
-9280066.996961
  0
VERTEX
  8
1
  6
CONTINUOUS
 10
1389169.742778
 20
-29228573.373879
30
-9280408.003518
  0
VERTEX
  8
1
  6
CONTINUOUS
 10
1387439.418459
 20
-29226565.913080
30
-9280896.217455
  0
VERTEX
  8
1
  6
CONTINUOUS
 10
1383358.170664
 20
-29225067.752465
30
-9281268.259360
  0
VERTEX
  8
1
  6
CONTINUOUS
 10
1380013.817990
 20
-29225981.857156
30
-9281113.486661
  0
VERTEX
  8
1
  6
CONTINUOUS
 10
1376763.137291
 20
-29225047.370548
30
-9281335.246283
  0
VERTEX
  8
1
  6
CONTINUOUS
 10
1372786.786290
 20
-29224115.050340
30
-9281566.771649
  0
VERTEX
  8
1
  6
CONTINUOUS
 10
1369925.462682
 20
-29225889.596649
30
-9281126.094207
  0
VERTEX
  8
1
  6
CONTINUOUS
 10
1365170.628855
 20
-29226791.694219
30
-9280902.074102
  0
VERTEX
  8
1
  6
CONTINUOUS
 10
1362748.590729
 20
-29225614.143979
30
-9281194.498045
  0
VERTEX
  8
1
  6
CONTINUOUS
 10
1357287.503719
 20
-29225359.685983
30
-9281257.688224
  0
VERTEX
  8
1
  6
CONTINUOUS
 10
1354252.342477
 20
-29227409.277543
30
-9280882.862715
  0
VERTEX
  8
1
  6
CONTINUOUS
 10
1350562.601454
 20
-29228959.121064
30
-9280745.687994
  0
VERTEX
  8
1
  6
CONTINUOUS
 10
1348867.708473
 20
-29229355.614094
30
-9280894.927632
  0
VERTEX
  8
1
  6
CONTINUOUS
 10
1346071.977286
 20
-29227736.318321
30
-9281327.962525
  0
VERTEX
  8
1
  6
CONTINUOUS
 10
1344632.027180
 20
-29227040.119073
30
-9281500.851394
  0
VERTEX
  8
1
  6
CONTINUOUS
 10
1343511.683936
 20
-29226583.388429
30
-9281614.272436
  0
VERTEX
  8
1
  6
CONTINUOUS
 10
1342961.889675
 20
-29226622.836549
30
-9281604.476187
  0
SEQEND
  8
0
  0
POLYLINE
  8
1
  6
CONTINUOUS
 66
     1
 70
     0
 210
-0.004418
 220
0.004639
 230
0.999979
 10
0.000000
 20
0.000000
30
-15926734.364278
  0
VERTEX
  8
1
  6
CONTINUOUS
 10
-26143916.990872
 20
1815691.626074
30
-15926734.364278
  0
VERTEX
  8
1
  6
CONTINUOUS
 10
-26151760.014333
 20
1815749.864715
30
-15926699.443970
  0
VERTEX
  8
1
  6
CONTINUOUS
 10
-26161008.144762
 20
1815835.141006
30
-15927319.304101
  0
VERTEX
  8
1
  6
CONTINUOUS
 10
-26168304.548769
 20
1815517.798867
30
-15927418.743650
  0
VERTEX
  8
1
  6
CONTINUOUS
 10
-26174181.450032
 20
1815027.435264
30
-15927815.763074
  0
VERTEX
  8
1
  6
CONTINUOUS
 10
-26175793.090125
 20
1813140.176152
30
-15927807.397322
  0
VERTEX
  8
1
  6
CONTINUOUS
 10
-26174941.948007
 20
1809985.019587
30
-15927565.388420
  0
VERTEX
  8
1
  6
CONTINUOUS
 10
-26175397.810579
 20
1807455.097836
30
-15927545.009614
  0
VERTEX
  8
1
  6
CONTINUOUS
 10
-26176090.730110
 20
1803173.607300
30
-15927341.404767
  0
VERTEX
  8
1
  6
CONTINUOUS
 10
-26175806.247978
 20
1798481.634451
30
-15927164.122596
  0
VERTEX
  8
1
  6
CONTINUOUS
 10
-26175129.994016
 20
1792833.675477
30
-15926862.703209
  0
VERTEX
  8
1
  6
CONTINUOUS
 10
-26174690.031289
 20
1785747.100368
30
-15926927.620747
  0
VERTEX
  8
1
  6
CONTINUOUS
 10
-26173960.894226
 20
1780520.825152
30
-15926945.085468
  0
VERTEX
  8
1
  6
CONTINUOUS
 10
-26174236.435716
 20
1774002.236029
30
-15926984.106753
  0
VERTEX
  8
1
  6
CONTINUOUS
 10
-26174214.935926
 20
1770145.377966
30
-15927002.092920
  0
VERTEX
  8
1
  6
CONTINUOUS
 10
-26173474.443152
 20
1766060.937086
30
-15927024.311277
  0
VERTEX
  8
1
  6
CONTINUOUS
 10
-26172837.280403
 20
1760705.865349
30
-15927172.169792
  0
VERTEX
  8
1
  6
CONTINUOUS
 10
-26171901.184141
 20
1758273.565046
30
-15927457.993922
  0
VERTEX
  8
1
  6
CONTINUOUS
 10
-26171440.208473
 20
1754342.867613
30
-15927618.567079
  0
SEQEND
  8
0
  0
POLYLINE
  8
1
  6
CONTINUOUS
 66
     1
 70
     0
 210
0.043158
 220
0.014332
 230
-0.998965
 10
0.000000
 20
0.000000
30
14933571.882594
  0
VERTEX
  8
1
  6
CONTINUOUS
 10
9805607.001783
 20
-24915720.767587
30
14933571.882594
  0
VERTEX
  8
1
  6
CONTINUOUS
 10
9804523.945156
 20
-24911119.750870
30
14933781.331772
  0
VERTEX
  8
1
  6
CONTINUOUS
 10
9804150.942995
 20
-24909078.802169
30
14933874.240591
  0
VERTEX
  8
1
  6
CONTINUOUS
 10
9806649.574353
 20
-24908274.955951
30
14933910.833575
  0
VERTEX
  8
1
  6
CONTINUOUS
 10
9808369.190755
 20
-24907516.071934
30
14933945.379772
  0
VERTEX
  8
1
  6
CONTINUOUS
 10
9807739.902832
 20
-24904417.751737
30
14934026.260406
  0
VERTEX
  8
1
  6
CONTINUOUS
 10
9807361.206482
 20
-24900648.891713
30
14933846.864757
  0
VERTEX
  8
1
  6
CONTINUOUS
 10
9807132.122051
 20
-24895535.680039
30
14933909.153898
  0
VERTEX
  8
1
  6
CONTINUOUS
 10
9807372.854666
 20
-24891601.359592
30
14933837.594167
  0
VERTEX
  8
1
  6
CONTINUOUS
 10
9808000.522504
 20
-24885929.024700
30
14933905.315210
  0
VERTEX
  8
1
  6
CONTINUOUS
 10
9808081.050341
 20
-24881428.325856
30
14933688.961897
  0
VERTEX
  8
1
  6
CONTINUOUS
 10
9807445.163182
 20
-24876510.780650
30
14933581.977934
  0
VERTEX
  8
1
  6
CONTINUOUS
 10
9806740.220497
 20
-24871675.288588
30
14933591.483093
  0
VERTEX
  8
1
  6
CONTINUOUS
 10
9805089.205179
 20
-24868041.301309
30
14933756.910801
  0
VERTEX
  8
1
  6
CONTINUOUS
 10
9804129.257486
 20
-24864815.728667
30
14933903.746507
  0
VERTEX
  8
1
  6
CONTINUOUS
 10
9803813.696287
 20
-24862818.565158
30
14933994.662120
  0
VERTEX
  8
1
  6
CONTINUOUS
 10
9805324.812081
 20
-24861760.857497
30
14934042.811478
  0
VERTEX
  8
1
  6
CONTINUOUS
 10
9807715.537873
 20
-24862364.856914
30
14933915.112329
  0
VERTEX
  8
1
  6
CONTINUOUS
 10
9808986.108233
 20
-24862383.778317
30
14933673.501919
  0
VERTEX
  8
1
  6
CONTINUOUS
 10
9809483.347934
 20
-24859500.030818
30
14933463.924311
  0
VERTEX
  8
1
  6
CONTINUOUS
 10
9805605.734905
 20
-24848065.860347
30
14934114.769667
  0
VERTEX
  8
1
  6
CONTINUOUS
 10
9804579.530554
 20
-24845927.559141
30
14933891.178187
  0
VERTEX
  8
1
  6
CONTINUOUS
 10
9797440.118831
 20
-24842436.692190
30
14933969.907766
  0
VERTEX
  8
1
  6
CONTINUOUS
 10
9795328.270348
 20
-24841129.883364
30
14934039.407155
  0
SEQEND
  8
0
  0
POLYLINE
  8
1
  6
CONTINUOUS
 66
     1
 70
     0
 210
0.096731
 220
-0.022199
 230
0.995063
 10
0.000000
 20
0.000000
30
-18516346.373865
  0
VERTEX
  8
1
  6
CONTINUOUS
 10
-4190176.471646
 20
24001443.784044
30
-18516346.373865
  0
VERTEX
  8
1
  6
CONTINUOUS
 10
-4190945.562372
 20
24001600.862154
30
-18515244.623811
  0
VERTEX
  8
1
  6
CONTINUOUS
 10
-4192228.035658
 20
24001566.596639
30
-18514204.286906
  0
VERTEX
  8
1
  6
CONTINUOUS
 10
-4194581.293899
 20
24000910.435448
30
-18513937.548765
  0
VERTEX
  8
1
  6
CONTINUOUS
 10
-4197797.023165
 20
23999587.208081
30
-18513805.572437
  0
VERTEX
  8
1
  6
CONTINUOUS
 10
-4199981.431671
 20
23998377.568843
30
-18513674.875569
  0
VERTEX
  8
1
  6
CONTINUOUS
 10
-4200008.402723
 20
23997381.923350
30
-18513575.571670
  0
VERTEX
  8
1
  6
CONTINUOUS
 10
-4199143.188809
 20
23995733.765310
30
-18513411.187338
  0
VERTEX
  8
1
  6
CONTINUOUS
 10
-4197370.356435
 20
23992512.148003
30
-18512737.529477
  0
VERTEX
  8
1
  6
CONTINUOUS
 10
-4195953.931233
 20
23990285.814945
30
-18512354.383667
  0
VERTEX
  8
1
  6
CONTINUOUS
 10
-4193719.725816
 20
23987263.575725
30
-18512042.901322
  0
VERTEX
  8
1
  6
CONTINUOUS
 10
-4192022.692553
 20
23985480.147446
30
-18511764.328231
  0
VERTEX
  8
1
  6
CONTINUOUS
 10
-4190639.801925
 20
23983669.349632
30
-18511583.722499
  0
VERTEX
  8
1
  6
CONTINUOUS
 10
-4188117.522825
 20
23981012.030503
30
-18511348.935589
  0
VERTEX
  8
1
  6
CONTINUOUS
 10
-4186473.054606
 20
23980153.142299
30
-18511293.420463
  0
VERTEX
  8
1
  6
CONTINUOUS
 10
-4184410.829491
 20
23979446.510347
30
-18511253.191600
  0
VERTEX
  8
1
  6
CONTINUOUS
 10
-4182688.815962
 20
23979087.852218
30
-18511106.672918
  0
VERTEX
  8
1
  6
CONTINUOUS
 10
-4179957.727798
 20
23978986.861909
30
-18511016.102905
  0
VERTEX
  8
1
  6
CONTINUOUS
 10
-4177809.490542
 20
23979056.130611
30
-18511033.061257
  0
VERTEX
  8
1
  6
CONTINUOUS
 10
-4175971.424532
 20
23979323.962809
30
-18511059.774361
  0
VERTEX
  8
1
  6
CONTINUOUS
 10
-4173618.928383
 20
23979724.381723
30
-18511099.711427
  0
VERTEX
  8
1
  6
CONTINUOUS
 10
-4172436.718409
 20
23979757.499049
30
-18511103.014489
  0
VERTEX
  8
1
  6
CONTINUOUS
 10
-4172019.327375
 20
23979491.406259
30
-18511076.474871
  0
VERTEX
  8
1
  6
CONTINUOUS
 10
-4171643.966474
 20
23978936.767389
30
-18511162.051792
  0
VERTEX
  8
1
  6
CONTINUOUS
 10
-4170871.449702
 20
23978899.577220
30
-18511379.836036
  0
VERTEX
  8
1
  6
CONTINUOUS
 10
-4170064.846655
 20
23979048.028329
30
-18511465.090088
  0
VERTEX
  8
1
  6
CONTINUOUS
 10
-4170136.170496
 20
23979510.103690
30
-18511531.275888
  0
VERTEX
  8
1
  6
CONTINUOUS
 10
-4170252.824325
 20
23980087.622718
30
-18511578.826987
  0
VERTEX
  8
1
  6
CONTINUOUS
 10
-4169922.330635
 20
23980175.798147
30
-18511527.223257
  0
VERTEX
  8
1
  6
CONTINUOUS
 10
-4165567.826427
 20
23980844.014188
30
-18511130.783648
  0
VERTEX
  8
1
  6
CONTINUOUS
 10
-4160049.872677
 20
23981442.391602
30
-18511210.664467
  0
VERTEX
  8
1
  6
CONTINUOUS
 10
-4130148.343220
 20
23984575.793208
30
-18511885.573468
  0
VERTEX
  8
1
  6
CONTINUOUS
 10
-4090354.892920
 20
23988994.843241
30
-18512094.778467
  0
VERTEX
  8
1
  6
CONTINUOUS
 10
-4046072.954136
 20
23993860.843855
30
-18511734.530012
  0
VERTEX
  8
1
  6
CONTINUOUS
 10
-4035095.795879
 20
23995493.783656
30
-18510699.482340
  0
VERTEX
  8
1
  6
CONTINUOUS
 10
-4035939.565268
 20
24007533.979532
30
-18512312.987134
  0
VERTEX
  8
1
  6
CONTINUOUS
 10
-4083807.349949
 20
24001576.088018
30
-18511678.559238
  0
VERTEX
  8
1
  6
CONTINUOUS
 10
-4137475.680318
 20
23995319.612467
30
-18511054.549567
  0
VERTEX
  8
1
  6
CONTINUOUS
 10
-4171214.433499
 20
23991483.186086
30
-18510923.553639
  0
VERTEX
  8
1
  6
CONTINUOUS
 10
-4171234.954151
 20
23992595.150946
30
-18511094.857212
  0
VERTEX
  8
1
  6
CONTINUOUS
 10
-4172740.289656
 20
23992399.831001
30
-18511075.376351
  0
VERTEX
  8
1
  6
CONTINUOUS
 10
-4172723.989697
 20
23992046.227474
30
-18511040.108568
  0
VERTEX
  8
1
  6
CONTINUOUS
 10
-4177332.040356
 20
23991635.094923
30
-18511089.750475
  0
VERTEX
  8
1
  6
CONTINUOUS
 10
-4178872.009112
 20
23991504.639847
30
-18511066.589008
  0
VERTEX
  8
1
  6
CONTINUOUS
 10
-4179625.038997
 20
23991084.943319
30
-18511236.173137
  0
VERTEX
  8
1
  6
CONTINUOUS
 10
-4183993.857848
 20
23992765.892725
30
-18512330.000583
  0
VERTEX
  8
1
  6
CONTINUOUS
 10
-4186809.687111
 20
23995643.979596
30
-18513009.593795
  0
VERTEX
  8
1
  6
CONTINUOUS
 10
-4188617.504778
 20
23999109.416515
30
-18514261.203104
  0
VERTEX
  8
1
  6
CONTINUOUS
 10
-4189527.353143
 20
24001017.074746
30
-18514824.008766
  0
SEQEND
  8
0
  0
POLYLINE
  8
1
  6
CONTINUOUS
 66
     1
 70
     0
 210
1.000000
 220
0.000000
 230
0.000000
 10
0.000000
 20
0.000000
30
-25914030.700000
  0
VERTEX
  8
1
  6
CONTINUOUS
 10
1669166.200000
 20
-16040002.900000
30
-25914030.700000
  0
VERTEX
  8
1
  6
CONTINUOUS
 10
1673152.000000
 20
-16041946.200000
30
-25909903.700000
  0
SEQEND
  8
0
  0
POLYLINE
  8
1
  6
CONTINUOUS
 66
     1
 70
     0
 210
-0.522088
 220
-0.005807
 230
-0.852872
 10
0.000000
 20
0.000000
30
27200815.933360
  0
VERTEX
  8
1
  6
CONTINUOUS
 10
-1954025.581115
 20
13704225.474256
30
27200815.933360
  0
VERTEX
  8
1
  6
CONTINUOUS
 10
-2005814.600967
 20
13704541.796330
30
27201197.535967
  0
VERTEX
  8
1
  6
CONTINUOUS
 10
-2041745.777718
 20
13704946.552550
30
27200752.371111
  0
VERTEX
  8
1
  6
CONTINUOUS
 10
-2073838.568599
 20
13704969.299477
30
27200836.764359
  0
VERTEX
  8
1
  6
CONTINUOUS
 10
-2116753.418866
 20
13705076.337536
30
27200902.292056
  0
VERTEX
  8
1
  6
CONTINUOUS
 10
-2146459.974996
 20
13705161.846320
30
27200731.394018
  0
VERTEX
  8
1
  6
CONTINUOUS
 10
-2146376.252680
 20
13695096.478192
30
27200500.723943
  0
VERTEX
  8
1
  6
CONTINUOUS
 10
-2109095.310787
 20
13695733.614031
30
27201313.579289
  0
VERTEX
  8
1
  6
CONTINUOUS
 10
-2052505.055069
 20
13694847.514309
30
27200771.117333
  0
VERTEX
  8
1
  6
CONTINUOUS
 10
-2018736.879742
 20
13695515.673435
30
27201180.158096
  0
VERTEX
  8
1
  6
CONTINUOUS
 10
-1989121.057198
 20
13694741.892603
30
27200706.456713
  0
VERTEX
  8
1
  6
CONTINUOUS
 10
-1965901.017431
 20
13694519.242053
30
27200570.152131
  0
VERTEX
  8
1
  6
CONTINUOUS
 10
-1954091.075632
 20
13694219.312582
30
27200386.538116
  0
SEQEND
  8
0
  0
POLYLINE
  8
1
  6
CONTINUOUS
 66
     1
 70
     0
 210
-0.971453
 220
0.017887
 230
-0.236558
 10
0.000000
 20
0.000000
30
28912065.842163
  0
VERTEX
  8
1
  6
CONTINUOUS
 10
-1380282.739486
 20
-9472403.127667
30
28912065.842163
  0
VERTEX
  8
1
  6
CONTINUOUS
 10
-1334507.209152
 20
-9472493.988277
30
28911650.376129
  0
VERTEX
  8
1
  6
CONTINUOUS
 10
-1291846.993505
 20
-9474004.384082
30
28911586.853166
  0
VERTEX
  8
1
  6
CONTINUOUS
 10
-1244986.876874
 20
-9474289.269725
30
28911559.799110
  0
VERTEX
  8
1
  6
CONTINUOUS
 10
-1211830.375076
 20
-9474312.619151
30
28911463.895680
  0
VERTEX
  8
1
  6
CONTINUOUS
 10
-1189434.445815
 20
-9474387.997724
30
28911154.292196
  0
SEQEND
  8
0
  0
POLYLINE
  8
1
  6
CONTINUOUS
 66
     1
 70
     0
 210
0.253957
 220
-0.160111
 230
0.953871
 10
0.000000
 20
0.000000
30
-22111777.039424
  0
VERTEX
  8
1
  6
CONTINUOUS
 10
-12302712.756653
 20
16779937.411384
30
-22111777.039424
  0
VERTEX
  8
1
  6
CONTINUOUS
 10
-12257429.677277
 20
16806918.143714
30
-22120268.808851
  0
VERTEX
  8
1
  6
CONTINUOUS
 10
-12223494.383411
 20
16826933.901317
30
-22126368.852222
  0
VERTEX
  8
1
  6
CONTINUOUS
 10
-12209538.499966
 20
16835450.023183
30
-22128051.551254
  0
VERTEX
  8
1
  6
CONTINUOUS
 10
-12147511.644559
 20
16872761.013067
30
-22139206.585040
  0
VERTEX
  8
1
  6
CONTINUOUS
 10
-12103377.967184
 20
16811569.238373
30
-22113898.592372
  0
VERTEX
  8
1
  6
CONTINUOUS
 10
-12099921.393799
 20
16814333.536027
30
-22114096.509089
  0
VERTEX
  8
1
  6
CONTINUOUS
 10
-12145496.881858
 20
16878220.043194
30
-22139013.466197
  0
SEQEND
  8
0
  0
POLYLINE
  8
1
  6
CONTINUOUS
 66
     1
 70
     0
 210
0.043763
 220
-0.207589
 230
-0.977237
 10
0.000000
 20
0.000000
30
14174668.798838
  0
VERTEX
  8
1
  6
CONTINUOUS
 10
-24782572.881308
 20
-10365340.858083
30
14174668.798838
  0
VERTEX
  8
1
  6
CONTINUOUS
 10
-24781930.125327
 20
-10369312.365304
30
14173806.610845
  0
VERTEX
  8
1
  6
CONTINUOUS
 10
-24744148.158370
 20
-10361752.858600
30
14174668.798838
  0
VERTEX
  8
1
  6
CONTINUOUS
 10
-24698402.267252
 20
-10352645.513794
30
14173806.610845
  0
SEQEND
  8
0
  0
POLYLINE
  8
1
  6
CONTINUOUS
 66
     1
 70
     0
 210
-0.019334
 220
-0.367208
 230
0.929938
 10
0.000000
 20
0.000000
30
-15082698.568810
  0
VERTEX
  8
1
  6
CONTINUOUS
 10
-25773198.115766
 20
-5511616.258889
30
-15082698.568810
  0
VERTEX
  8
1
  6
CONTINUOUS
 10
-25694297.541108
 20
-5507660.454178
30
-15080911.153509
  0
VERTEX
  8
1
  6
CONTINUOUS
 10
-25694251.456054
 20
-5503574.662693
30
-15081708.102371
  0
VERTEX
  8
1
  6
CONTINUOUS
 10
-25773407.466929
 20
-5507181.244511
30
-15081897.685263
  0
VERTEX
  8
1
  6
CONTINUOUS
 10
-25773150.826375
 20
-5510622.287726
30
-15080623.268606
  0
SEQEND
  8
0
  0
POLYLINE
  8
1
  6
CONTINUOUS
 66
     1
 70
     0
 210
0.995195
 220
0.000653
 230
-0.097911
 10
0.000000
 20
0.000000
30
-24016616.555465
  0
VERTEX
  8
1
  6
CONTINUOUS
 10
1689330.582818
 20
-18503963.126441
30
-24016616.555465
  0
VERTEX
  8
1
  6
CONTINUOUS
 10
1781012.924047
 20
-18503263.431999
30
-24016871.557785
  0
VERTEX
  8
1
  6
CONTINUOUS
 10
1821048.885755
 20
-18502010.444211
30
-24016616.555465
  0
VERTEX
  8
1
  6
CONTINUOUS
 10
1869792.492175
 20
-18497797.971604
30
-24016871.557785
  0
SEQEND
  8
0
  0
POLYLINE
  8
1
  6
CONTINUOUS
 66
     1
 70
     0
 210
1.000000
 220
0.000000
 230
0.000000
 10
0.000000
 20
0.000000
30
-25714284.100000
  0
VERTEX
  8
1
  6
CONTINUOUS
 10
1837345.700000
 20
-16057913.200000
30
-25714284.100000
  0
VERTEX
  8
1
  6
CONTINUOUS
 10
1838144.300000
 20
-16055859.700000
30
-25637853.000000
  0
SEQEND
  8
0
  0
POLYLINE
  8
1
  6
CONTINUOUS
 66
     1
 70
     0
 210
1.000000
 220
0.000000
 230
0.000000
 10
0.000000
 20
0.000000
30
-25703699.300000
  0
VERTEX
  8
1
  6
CONTINUOUS
 10
1775012.300000
 20
-16061340.700000
30
-25703699.300000
  0
VERTEX
  8
1
  6
CONTINUOUS
 10
1751972.800000
 20
-16061248.800000
30
-25703848.000000
  0
SEQEND
  8
0
  0
POLYLINE
  8
1
  6
CONTINUOUS
 66
     1
 70
     0
 210
0.996000
 220
-0.002950
 230
-0.089301
 10
0.000000
 20
0.000000
30
-24181964.188300
  0
VERTEX
  8
1
  6
CONTINUOUS
 10
1596298.159355
 20
-18295272.070903
30
-24181964.188300
  0
VERTEX
  8
1
  6
CONTINUOUS
 10
1670317.323195
 20
-18296435.362875
30
-24182151.692872
  0
VERTEX
  8
1
  6
CONTINUOUS
 10
1725489.174509
 20
-18293954.607258
30
-24181964.188300
  0
VERTEX
  8
1
  6
CONTINUOUS
 10
1761070.441170
 20
-18292201.346765
30
-24182151.692872
  0
SEQEND
  8
0
  0
POLYLINE
  8
1
  6
CONTINUOUS
 66
     1
 70
     0
 210
0.005286
 220
-0.034920
 230
0.999376
 10
0.000000
 20
0.000000
30
-16248922.905990
  0
VERTEX
  8
1
  6
CONTINUOUS
 10
-25114222.227187
 20
5089515.246245
30
-16248922.905990
  0
VERTEX
  8
1
  6
CONTINUOUS
 10
-25116627.653799
 20
5073000.337901
30
-16248599.833798
  0
VERTEX
  8
1
  6
CONTINUOUS
 10
-25114952.082277
 20
5073499.528325
30
-16248928.269019
  0
VERTEX
  8
1
  6
CONTINUOUS
 10
-25113894.383004
 20
5076086.975155
30
-16249019.709059
  0
VERTEX
  8
1
  6
CONTINUOUS
 10
-25112492.353818
 20
5076976.007789
30
-16249051.127358
  0
VERTEX
  8
1
  6
CONTINUOUS
 10
-25112105.417796
 20
5074970.954977
30
-16249140.569054
  0
VERTEX
  8
1
  6
CONTINUOUS
 10
-25112198.442655
 20
5072126.949177
30
-16249310.731115
  0
VERTEX
  8
1
  6
CONTINUOUS
 10
-25111078.174632
 20
5072027.123926
30
-16249307.203304
  0
VERTEX
  8
1
  6
CONTINUOUS
 10
-25107962.469899
 20
5073055.012949
30
-16248772.172319
  0
VERTEX
  8
1
  6
CONTINUOUS
 10
-25105107.528517
 20
5074511.436470
30
-16249084.304759
  0
VERTEX
  8
1
  6
CONTINUOUS
 10
-25102571.620608
 20
5075890.537248
30
-16249022.773211
  0
VERTEX
  8
1
  6
CONTINUOUS
 10
-25101404.821159
 20
5077714.124024
30
-16248966.943498
  0
VERTEX
  8
1
  6
CONTINUOUS
 10
-25100803.032149
 20
5081247.271331
30
-16249091.804472
  0
VERTEX
  8
1
  6
CONTINUOUS
 10
-25100045.969142
 20
5084359.903208
30
-16249201.804485
  0
VERTEX
  8
1
  6
CONTINUOUS
 10
-25099220.570135
 20
5085957.935530
30
-16249047.747399
  0
VERTEX
  8
1
  6
CONTINUOUS
 10
-25098532.345973
 20
5087333.326497
30
-16248925.947228
  0
VERTEX
  8
1
  6
CONTINUOUS
 10
-25099192.615015
 20
5083627.088814
30
-16248794.969263
  0
VERTEX
  8
1
  6
CONTINUOUS
 10
-25097520.188582
 20
5083113.521372
30
-16248776.819855
  0
VERTEX
  8
1
  6
CONTINUOUS
 10
-25096105.185605
 20
5080694.697905
30
-16248691.338943
  0
VERTEX
  8
1
  6
CONTINUOUS
 10
-25094940.288229
 20
5077545.429878
30
-16248580.044214
  0
VERTEX
  8
1
  6
CONTINUOUS
 10
-25093938.452539
 20
5076784.742492
30
-16248282.592819
  0
VERTEX
  8
1
  6
CONTINUOUS
 10
-25092303.302101
 20
5080817.958708
30
-16248204.588578
  0
VERTEX
  8
1
  6
CONTINUOUS
 10
-25091007.654863
 20
5082236.349305
30
-16248395.001841
  0
VERTEX
  8
1
  6
CONTINUOUS
 10
-25089278.060949
 20
5080131.687720
30
-16248320.623370
  0
VERTEX
  8
1
  6
CONTINUOUS
 10
-25086995.658222
 20
5079813.459570
30
-16248319.383470
  0
VERTEX
  8
1
  6
CONTINUOUS
 10
-25085891.877412
 20
5082056.997976
30
-16248448.801106
  0
VERTEX
  8
1
  6
CONTINUOUS
 10
-25082793.482349
 20
5081576.871964
30
-16248431.833514
  0
VERTEX
  8
1
  6
CONTINUOUS
 10
-25082548.749872
 20
5082024.105707
30
-16248447.638698
  0
VERTEX
  8
1
  6
CONTINUOUS
 10
-25082059.678905
 20
5085048.102463
30
-16248554.506356
  0
SEQEND
  8
0
  0
POLYLINE
  8
1
  6
CONTINUOUS
 66
     1
 70
     0
 210
0.654903
 220
0.004510
 230
0.755700
 10
0.000000
 20
0.000000
30
-28964314.680615
  0
VERTEX
  8
1
  6
CONTINUOUS
 10
1850312.489066
 20
8894891.561795
30
-28964314.680615
  0
VERTEX
  8
1
  6
CONTINUOUS
 10
1857244.430224
 20
8894757.659304
30
-28964397.524105
  0
VERTEX
  8
1
  6
CONTINUOUS
 10
1885534.971354
 20
8894489.637134
30
-28964589.356077
  0
VERTEX
  8
1
  6
CONTINUOUS
 10
1899619.272556
 20
8895388.389770
30
-28964321.140592
  0
VERTEX
  8
1
  6
CONTINUOUS
 10
1910808.127559
 20
8895786.656774
30
-28964613.230748
  0
SEQEND
  8
0
  0
POLYLINE
  8
1
  6
CONTINUOUS
 66
     1
 70
     0
 210
0.022566
 220
-0.001452
 230
-0.999744
 10
0.000000
 20
0.000000
30
15476136.699872
  0
VERTEX
  8
1
  6
CONTINUOUS
 10
29695.517338
 20
-26081112.520464
30
15476136.699872
  0
VERTEX
  8
1
  6
CONTINUOUS
 10
28978.107361
 20
-26092118.092409
30
15476438.813062
  0
VERTEX
  8
1
  6
CONTINUOUS
 10
70603.101117
 20
-26095009.285664
30
15476363.416528
  0
VERTEX
  8
1
  6
CONTINUOUS
 10
71921.869171
 20
-26083648.668910
30
15476219.572276
  0
VERTEX
  8
1
  6
CONTINUOUS
 10
29338.147515
 20
-26081052.919451
30
15476578.960688
  0
SEQEND
  8
0
  0
POLYLINE
  8
1
  6
CONTINUOUS
 66
     1
 70
     0
 210
0.004131
 220
0.013129
 230
-0.999905
 10
0.000000
 20
0.000000
30
15977029.765879
  0
VERTEX
  8
1
  6
CONTINUOUS
 10
25770157.064576
 20
1505927.998396
30
15977029.765879
  0
VERTEX
  8
1
  6
CONTINUOUS
 10
25746649.654865
 20
1505620.629165
30
15977192.972195
  0
VERTEX
  8
1
  6
CONTINUOUS
 10
25746723.554235
 20
1499230.783958
30
15977108.767175
  0
VERTEX
  8
1
  6
CONTINUOUS
 10
25769508.332436
 20
1499739.091884
30
15977111.500403
  0
VERTEX
  8
1
  6
CONTINUOUS
 10
25770136.627073
 20
1506035.883206
30
15977191.582060
  0
SEQEND
  8
0
  0
POLYLINE
  8
1
  6
CONTINUOUS
 66
     1
 70
     0
 210
0.013403
 220
-0.007540
 230
0.999882
 10
0.000000
 20
0.000000
30
-16416917.325754
  0
VERTEX
  8
1
  6
CONTINUOUS
 10
-25451820.507445
 20
1593640.573531
30
-16416917.325754
  0
VERTEX
  8
1
  6
CONTINUOUS
 10
-25451804.208909
 20
1586247.785333
30
-16416861.364129
  0
VERTEX
  8
1
  6
CONTINUOUS
 10
-25429114.085210
 20
1586101.041365
30
-16416866.642188
  0
VERTEX
  8
1
  6
CONTINUOUS
 10
-25429050.025007
 20
1593523.212259
30
-16416911.747004
  0
VERTEX
  8
1
  6
CONTINUOUS
 10
-25451843.148514
 20
1593511.330513
30
-16416816.442880
  0
SEQEND
  8
0
  0
POLYLINE
  8
1
  6
CONTINUOUS
 66
     1
 70
     0
 210
0.011971
 220
-0.134313
 230
-0.990867
 10
0.000000
 20
0.000000
30
15314927.944642
  0
VERTEX
  8
1
  6
CONTINUOUS
 10
-25082323.826449
 20
-6307365.355072
30
15314927.944642
  0
VERTEX
  8
1
  6
CONTINUOUS
 10
-25082873.217685
 20
-6301265.829117
30
15315687.168906
  0
VERTEX
  8
1
  6
CONTINUOUS
 10
-25097944.112389
 20
-6301853.735941
30
15315637.539381
  0
VERTEX
  8
1
  6
CONTINUOUS
 10
-25165791.522489
 20
-6308797.394603
30
15315622.585749
  0
VERTEX
  8
1
  6
CONTINUOUS
 10
-25164859.953440
 20
-6315639.396276
30
15315075.681590
  0
VERTEX
  8
1
  6
CONTINUOUS
 10
-25082040.534043
 20
-6307245.699549
30
15316197.777323
  0
SEQEND
  8
0
  0
POLYLINE
  8
1
  6
CONTINUOUS
 66
     1
 70
     0
 210
-0.182205
 220
-0.011836
 230
-0.983189
 10
0.000000
 20
0.000000
30
20303315.573238
  0
VERTEX
  8
1
  6
CONTINUOUS
 10
-3306556.747107
 20
21700626.372182
30
20303315.573238
  0
VERTEX
  8
1
  6
CONTINUOUS
 10
-3436588.888825
 20
21691676.244011
30
20300787.482020
  0
VERTEX
  8
1
  6
CONTINUOUS
 10
-3539707.473061
 20
21683423.006600
30
20300171.681991
  0
VERTEX
  8
1
  6
CONTINUOUS
 10
-3625500.519526
 20
21676346.544466
30
20300721.950182
  0
VERTEX
  8
1
  6
CONTINUOUS
 10
-3739744.270971
 20
21666548.539290
30
20302203.348182
  0
VERTEX
  8
1
  6
CONTINUOUS
 10
-3847779.643492
 20
21658533.061388
30
20302854.254474
  0
VERTEX
  8
1
  6
CONTINUOUS
 10
-3853326.790492
 20
21641301.760257
30
20301926.212306
  0
VERTEX
  8
1
  6
CONTINUOUS
 10
-3769816.925878
 20
21647515.589235
30
20301837.190876
  0
VERTEX
  8
1
  6
CONTINUOUS
 10
-3651808.451299
 20
21656314.938189
30
20302218.258718
  0
VERTEX
  8
1
  6
CONTINUOUS
 10
-3522853.011250
 20
21666371.877786
30
20301864.902299
  0
VERTEX
  8
1
  6
CONTINUOUS
 10
-3420234.454821
 20
21676026.865012
30
20299898.436546
  0
VERTEX
  8
1
  6
CONTINUOUS
 10
-3337399.549660
 20
21682652.541897
30
20300670.387374
  0
VERTEX
  8
1
  6
CONTINUOUS
 10
-3307079.037782
 20
21684615.054074
30
20301513.696507
  0
SEQEND
  8
0
  0
POLYLINE
  8
1
  6
CONTINUOUS
 66
     1
 70
     0
 210
-0.005739
 220
0.988748
 230
-0.149479
 10
0.000000
 20
0.000000
30
4561620.177580
  0
VERTEX
  8
1
  6
CONTINUOUS
 10
25948859.346888
 20
-15529628.840611
30
4561620.177580
  0
VERTEX
  8
1
  6
CONTINUOUS
 10
25992920.329847
 20
-15529732.903241
30
4560931.829070
  0
VERTEX
  8
1
  6
CONTINUOUS
 10
26059760.976525
 20
-15529699.737138
30
4561620.177580
  0
VERTEX
  8
1
  6
CONTINUOUS
 10
26147961.412525
 20
-15525204.425510
30
4560931.829070
  0
SEQEND
  8
0
  0
POLYLINE
  8
1
  6
CONTINUOUS
 66
     1
 70
     0
 210
-0.021667
 220
-0.952730
 230
0.303043
 10
0.000000
 20
0.000000
30
-6268003.412759
  0
VERTEX
  8
1
  6
CONTINUOUS
 10
-25554780.503563
 20
-14830386.162711
30
-6268003.412759
  0
VERTEX
  8
1
  6
CONTINUOUS
 10
-25588939.371597
 20
-14829730.064172
30
-6267653.451806
  0
VERTEX
  8
1
  6
CONTINUOUS
 10
-25626104.841649
 20
-14829989.336583
30
-6266871.119400
  0
VERTEX
  8
1
  6
CONTINUOUS
 10
-25646650.786901
 20
-14830371.650463
30
-6264478.932326
  0
VERTEX
  8
1
  6
CONTINUOUS
 10
-25654090.384853
 20
-14829456.461701
30
-6265539.023914
  0
VERTEX
  8
1
  6
CONTINUOUS
 10
-25676918.905479
 20
-14827024.073687
30
-6270378.627181
  0
VERTEX
  8
1
  6
CONTINUOUS
 10
-25701978.772687
 20
-14824928.504496
30
-6270985.566198
  0
VERTEX
  8
1
  6
CONTINUOUS
 10
-25715338.177285
 20
-14824791.870102
30
-6271415.238817
  0
VERTEX
  8
1
  6
CONTINUOUS
 10
-25754605.267260
 20
-14827953.475086
30
-6268910.196865
  0
VERTEX
  8
1
  6
CONTINUOUS
 10
-25779924.619374
 20
-14832991.704110
30
-6267577.333452
  0
VERTEX
  8
1
  6
CONTINUOUS
 10
-25799485.417322
 20
-14836042.175519
30
-6265752.417808
  0
VERTEX
  8
1
  6
CONTINUOUS
 10
-25806772.354765
 20
-14835528.404084
30
-6268393.005030
  0
VERTEX
  8
1
  6
CONTINUOUS
 10
-25813734.174616
 20
-14836819.215937
30
-6268762.873846
  0
VERTEX
  8
1
  6
CONTINUOUS
 10
-25824114.470713
 20
-14840057.410768
30
-6268297.842889
  0
VERTEX
  8
1
  6
CONTINUOUS
 10
-25842894.904354
 20
-14840994.444558
30
-6269185.599034
  0
VERTEX
  8
1
  6
CONTINUOUS
 10
-25857584.048497
 20
-14841160.426589
30
-6268663.637236
  0
SEQEND
  8
0
  0
POLYLINE
  8
1
  6
CONTINUOUS
 66
     1
 70
     0
 210
0.077762
 220
0.010476
 230
-0.996917
 10
0.000000
 20
0.000000
30
14018787.123094
  0
VERTEX
  8
1
  6
CONTINUOUS
 10
5044654.934003
 20
-26106743.550200
30
14018787.123094
  0
VERTEX
  8
1
  6
CONTINUOUS
 10
5046586.766021
 20
-26106525.045698
30
14018804.321028
  0
VERTEX
  8
1
  6
CONTINUOUS
 10
5047594.688633
 20
-26108306.667710
30
14018664.094091
  0
VERTEX
  8
1
  6
CONTINUOUS
 10
5048340.613137
 20
-26107310.917160
30
14018742.467084
  0
VERTEX
  8
1
  6
CONTINUOUS
 10
5052917.092066
 20
-26106972.722319
30
14018769.085540
  0
VERTEX
  8
1
  6
CONTINUOUS
 10
5054403.919935
 20
-26107383.535242
30
14018736.751500
  0
VERTEX
  8
1
  6
CONTINUOUS
 10
5054975.870468
 20
-26106513.854116
30
14018805.201889
  0
VERTEX
  8
1
  6
CONTINUOUS
 10
5055871.085915
 20
-26105779.108466
30
14018863.031850
  0
VERTEX
  8
1
  6
CONTINUOUS
 10
5055566.412515
 20
-26103613.334256
30
14019033.494428
  0
VERTEX
  8
1
  6
CONTINUOUS
 10
5096855.311279
 20
-26098133.005807
30
14019464.837140
  0
VERTEX
  8
1
  6
CONTINUOUS
 10
5097096.040359
 20
-26094494.263423
30
14018826.883420
  0
VERTEX
  8
1
  6
CONTINUOUS
 10
5095024.650974
 20
-26085883.719030
30
14019504.597465
  0
SEQEND
  8
0
  0
POLYLINE
  8
1
  6
CONTINUOUS
 66
     1
 70
     0
 210
0.000000
 220
0.000000
 230
-1.000000
 10
0.000000
 20
0.000000
30
16025137.700000
  0
VERTEX
  8
1
  6
CONTINUOUS
 10
25369379.100000
 20
1837754.100000
30
16025137.700000
  0
VERTEX
  8
1
  6
CONTINUOUS
 10
25371164.700000
 20
1838513.200000
30
16025137.700000
  0
VERTEX
  8
1
  6
CONTINUOUS
 10
25370175.600000
 20
1839254.600000
30
16025137.700000
  0
VERTEX
  8
1
  6
CONTINUOUS
 10
25369676.400000
 20
1840081.100000
30
16025137.700000
  0
VERTEX
  8
1
  6
CONTINUOUS
 10
25369216.200000
 20
1840026.400000
30
16025137.700000
  0
VERTEX
  8
1
  6
CONTINUOUS
 10
25369839.200000
 20
1921995.400000
30
16025137.700000
  0
VERTEX
  8
1
  6
CONTINUOUS
 10
25370441.800000
 20
1922842.900000
30
16025137.700000
  0
VERTEX
  8
1
  6
CONTINUOUS
 10
25370602.700000
 20
1924777.900000
30
16025137.700000
  0
VERTEX
  8
1
  6
CONTINUOUS
 10
25370462.100000
 20
1926820.100000
30
16025137.700000
  0
VERTEX
  8
1
  6
CONTINUOUS
 10
25370402.500000
 20
1927771.100000
30
16025137.700000
  0
VERTEX
  8
1
  6
CONTINUOUS
 10
25371143.800000
 20
1928770.300000
30
16025137.700000
  0
VERTEX
  8
1
  6
CONTINUOUS
 10
25370202.900000
 20
1929702.500000
30
16025137.700000
  0
VERTEX
  8
1
  6
CONTINUOUS
 10
25369464.300000
 20
1930436.400000
30
16025137.700000
  0
VERTEX
  8
1
  6
CONTINUOUS
 10
25369492.500000
 20
1930617.000000
30
16025137.700000
  0
VERTEX
  8
1
  6
CONTINUOUS
 10
25368207.800000
 20
2030057.400000
30
16025137.700000
  0
SEQEND
  8
0
  0
POLYLINE
  8
1
  6
CONTINUOUS
 66
     1
 70
     0
 210
0.132831
 220
-0.052226
 230
-0.989762
 10
0.000000
 20
0.000000
30
12408834.723270
  0
VERTEX
  8
1
  6
CONTINUOUS
 10
-7512491.590401
 20
-27147042.994835
30
12408834.723270
  0
VERTEX
  8
1
  6
CONTINUOUS
 10
-7533917.834206
 20
-27140062.697085
30
12409163.176690
  0
VERTEX
  8
1
  6
CONTINUOUS
 10
-7560259.722085
 20
-27130947.758788
30
12410538.321361
  0
VERTEX
  8
1
  6
CONTINUOUS
 10
-7563666.994293
 20
-27138546.574445
30
12409543.767864
  0
VERTEX
  8
1
  6
CONTINUOUS
 10
-7568273.807243
 20
-27144201.536786
30
12408869.942206
  0
VERTEX
  8
1
  6
CONTINUOUS
 10
-7572891.162512
 20
-27148041.428060
30
12408407.342325
  0
VERTEX
  8
1
  6
CONTINUOUS
 10
-7578456.059563
 20
-27148373.811546
30
12408541.575884
  0
VERTEX
  8
1
  6
CONTINUOUS
 10
-7586013.381891
 20
-27146410.782099
30
12409128.263659
  0
VERTEX
  8
1
  6
CONTINUOUS
 10
-7591789.871230
 20
-27144480.245810
30
12409760.883986
  0
SEQEND
  8
0
  0
POLYLINE
  8
1
  6
CONTINUOUS
 66
     1
 70
     0
 210
-0.015366
 220
0.135015
 230
-0.990724
 10
0.000000
 20
0.000000
30
16701051.567120
  0
VERTEX
  8
1
  6
CONTINUOUS
 10
25731984.913713
 20
2899605.261030
30
16701051.567120
  0
VERTEX
  8
1
  6
CONTINUOUS
 10
25686203.505142
 20
2893824.262260
30
16701664.089295
  0
VERTEX
  8
1
  6
CONTINUOUS
 10
25687020.692410
 20
2887543.821366
30
16701328.449306
  0
VERTEX
  8
1
  6
CONTINUOUS
 10
25732941.780484
 20
2893657.610590
30
16701388.487224
  0
VERTEX
  8
1
  6
CONTINUOUS
 10
25731923.172249
 20
2899868.294761
30
16701603.327736
  0
SEQEND
  8
0
  0
POLYLINE
  8
1
  6
CONTINUOUS
 66
     1
 70
     0
 210
-0.260355
 220
0.133964
 230
-0.956174
 10
0.000000
 20
0.000000
30
22846733.412997
  0
VERTEX
  8
1
  6
CONTINUOUS
 10
9695479.111336
 20
18417689.378642
30
22846733.412997
  0
VERTEX
  8
1
  6
CONTINUOUS
 10
9798097.780250
 20
18375423.751834
30
22832449.928142
  0
VERTEX
  8
1
  6
CONTINUOUS
 10
9798043.968105
 20
18375366.806332
30
22832422.032032
  0
VERTEX
  8
1
  6
CONTINUOUS
 10
9804024.274219
 20
18372582.177970
30
22831569.327375
  0
VERTEX
  8
1
  6
CONTINUOUS
 10
9804338.656579
 20
18373052.913714
30
22831713.475358
  0
VERTEX
  8
1
  6
CONTINUOUS
 10
9806474.270682
 20
18372201.699691
30
22832018.509765
  0
VERTEX
  8
1
  6
CONTINUOUS
 10
9809272.333343
 20
18370744.437117
30
22832860.841699
  0
VERTEX
  8
1
  6
CONTINUOUS
 10
9816666.173485
 20
18382858.129034
30
22837356.013437
  0
VERTEX
  8
1
  6
CONTINUOUS
 10
9825255.573368
 20
18403840.431014
30
22840774.512460
  0
VERTEX
  8
1
  6
CONTINUOUS
 10
9827893.281554
 20
18408785.337115
30
22842267.817388
  0
VERTEX
  8
1
  6
CONTINUOUS
 10
9830495.034174
 20
18413698.741501
30
22843772.392598
  0
VERTEX
  8
1
  6
CONTINUOUS
 10
9832899.332176
 20
18415403.616971
30
22844954.378524
  0
VERTEX
  8
1
  6
CONTINUOUS
 10
9842747.509224
 20
18417918.271390
30
22830921.775550
  0
SEQEND
  8
0
  0
POLYLINE
  8
1
  6
CONTINUOUS
 66
     1
 70
     0
 210
0.011910
 220
0.091825
 230
0.995704
 10
0.000000
 20
0.000000
30
-16471249.804533
  0
VERTEX
  8
1
  6
CONTINUOUS
 10
26196492.148784
 20
-534900.568973
30
-16471249.804533
  0
VERTEX
  8
1
  6
CONTINUOUS
 10
26139922.030350
 20
-535810.353770
30
-16472382.429547
  0
VERTEX
  8
1
  6
CONTINUOUS
 10
26140298.984887
 20
-541721.256654
30
-16471822.709414
  0
VERTEX
  8
1
  6
CONTINUOUS
 10
26197576.059163
 20
-541854.007831
30
-16471810.364385
  0
VERTEX
  8
1
  6
CONTINUOUS
 10
26197095.785824
 20
-535753.609280
30
-16472377.663283
  0
SEQEND
  8
0
  0
POLYLINE
  8
1
  6
CONTINUOUS
 66
     1
 70
     0
 210
0.102511
 220
-0.022912
 230
0.994468
 10
0.000000
 20
0.000000
30
-19091336.960240
  0
VERTEX
  8
1
  6
CONTINUOUS
 10
-3346385.907304
 20
24128783.429073
30
-19091336.960240
  0
VERTEX
  8
1
  6
CONTINUOUS
 10
-3340911.770495
 20
24089545.202645
30
-19086839.887838
  0
VERTEX
  8
1
  6
CONTINUOUS
 10
-3337380.657704
 20
24090272.907364
30
-19086916.751360
  0
VERTEX
  8
1
  6
CONTINUOUS
 10
-3342830.078237
 20
24129146.801056
30
-19091012.735314
  0
VERTEX
  8
1
  6
CONTINUOUS
 10
-3342793.526615
 20
24135045.060883
30
-19086629.642792
  0
VERTEX
  8
1
  6
CONTINUOUS
 10
-3340951.108679
 20
24135385.523422
30
-19086655.548385
  0
VERTEX
  8
1
  6
CONTINUOUS
 10
-3341222.398668
 20
24138373.373558
30
-19086971.138869
  0
VERTEX
  8
1
  6
CONTINUOUS
 10
-3348798.588625
 20
24137166.521020
30
-19086833.609921
  0
VERTEX
  8
1
  6
CONTINUOUS
 10
-3348285.253637
 20
24134148.504906
30
-19086514.833167
  0
VERTEX
  8
1
  6
CONTINUOUS
 10
-3346620.288178
 20
24134552.106993
30
-19086557.463477
  0
VERTEX
  8
1
  6
CONTINUOUS
 10
-3346462.270788
 20
24128302.988912
30
-19089684.654058
  0
SEQEND
  8
0
  0
POLYLINE
  8
1
  6
CONTINUOUS
 66
     1
 70
     0
 210
0.000000
 220
0.000000
 230
-1.000000
 10
0.000000
 20
0.000000
30
16438056.500000
  0
VERTEX
  8
1
  6
CONTINUOUS
 10
26107635.900000
 20
2410820.700000
30
16438056.500000
  0
VERTEX
  8
1
  6
CONTINUOUS
 10
26106554.700000
 20
2418763.700000
30
16438056.500000
  0
VERTEX
  8
1
  6
CONTINUOUS
 10
26106970.000000
 20
2419308.800000
30
16438056.500000
  0
VERTEX
  8
1
  6
CONTINUOUS
 10
26106576.900000
 20
2422560.500000
30
16438056.500000
  0
VERTEX
  8
1
  6
CONTINUOUS
 10
26098299.500000
 20
2420855.000000
30
16438056.500000
  0
VERTEX
  8
1
  6
CONTINUOUS
 10
26098626.000000
 20
2418253.700000
30
16438056.500000
  0
VERTEX
  8
1
  6
CONTINUOUS
 10
26099355.100000
 20
2417469.600000
30
16438056.500000
  0
VERTEX
  8
1
  6
CONTINUOUS
 10
26098758.500000
 20
2417022.900000
30
16438056.500000
  0
VERTEX
  8
1
  6
CONTINUOUS
 10
26099150.500000
 20
2408882.600000
30
16438056.500000
  0
VERTEX
  8
1
  6
CONTINUOUS
 10
26107708.100000
 20
2410611.000000
30
16438056.500000
  0
SEQEND
  8
0
  0
POLYLINE
  8
1
  6
CONTINUOUS
 66
     1
 70
     0
 210
-0.000189
 220
-0.000034
 230
1.000000
 10
0.000000
 20
0.000000
30
-16433239.229776
  0
VERTEX
  8
1
  6
CONTINUOUS
 10
-26111068.181820
 20
2399028.239633
30
-16433239.229776
  0
VERTEX
  8
1
  6
CONTINUOUS
 10
-26110308.479942
 20
2395865.139975
30
-16433229.264557
  0
VERTEX
  8
1
  6
CONTINUOUS
 10
-26110607.979936
 20
2394956.539977
30
-16433229.176593
  0
VERTEX
  8
1
  6
CONTINUOUS
 10
-26111538.479920
 20
2387062.139988
30
-16433228.728607
  0
VERTEX
  8
1
  6
CONTINUOUS
 10
-26103297.280067
 20
2386739.239935
30
-16433230.276750
  0
VERTEX
  8
1
  6
CONTINUOUS
 10
-26103117.380070
 20
2393709.639929
30
-16433230.550891
  0
VERTEX
  8
1
  6
CONTINUOUS
 10
-26103601.480062
 20
2394385.639932
30
-16433230.482584
  0
VERTEX
  8
1
  6
CONTINUOUS
 10
-26102963.380073
 20
2398095.739926
30
-16433230.731113
  0
VERTEX
  8
1
  6
CONTINUOUS
 10
-26110935.179930
 20
2399307.439977
30
-16433229.264557
  0
SEQEND
  8
0
  0
POLYLINE
  8
1
  6
CONTINUOUS
 66
     1
 70
     0
 210
0.037576
 220
0.760646
 230
0.648078
 10
0.000000
 20
0.000000
30
-9719325.489786
  0
VERTEX
  8
1
  6
CONTINUOUS
 10
26137389.439593
 20
-13333586.093198
30
-9719325.489786
  0
VERTEX
  8
1
  6
CONTINUOUS
 10
26144409.917539
 20
-13348866.370229
30
-9718185.725377
  0
VERTEX
  8
1
  6
CONTINUOUS
 10
26159378.437683
 20
-13352335.313344
30
-9719410.799885
  0
VERTEX
  8
1
  6
CONTINUOUS
 10
26171172.565232
 20
-13352287.959414
30
-9719203.824149
  0
VERTEX
  8
1
  6
CONTINUOUS
 10
26179625.048771
 20
-13346329.220957
30
-9718756.067032
  0
VERTEX
  8
1
  6
CONTINUOUS
 10
26186064.697287
 20
-13334423.370626
30
-9718527.054777
  0
SEQEND
  8
0
  0
POLYLINE
  8
1
  6
CONTINUOUS
 66
     1
 70
     0
 210
-0.008886
 220
0.023822
 230
0.999677
 10
0.000000
 20
0.000000
30
-16213937.653829
  0
VERTEX
  8
1
  6
CONTINUOUS
 10
23516440.329849
 20
-11777148.561841
30
-16213937.653829
  0
VERTEX
  8
1
  6
CONTINUOUS
 10
23516411.550850
 20
-11777223.400509
30
-16213935.750408
  0
VERTEX
  8
1
  6
CONTINUOUS
 10
23508721.264302
 20
-11771436.062717
30
-16214103.050043
  0
VERTEX
  8
1
  6
CONTINUOUS
 10
23475072.591951
 20
-11757077.454016
30
-16214478.245133
  0
VERTEX
  8
1
  6
CONTINUOUS
 10
23473075.021583
 20
-11754485.977091
30
-16214544.155855
  0
VERTEX
  8
1
  6
CONTINUOUS
 10
23458819.495908
 20
-11749325.827023
30
-16213282.547037
  0
VERTEX
  8
1
  6
CONTINUOUS
 10
23448872.114760
 20
-11745570.419593
30
-16213929.238946
  0
VERTEX
  8
1
  6
CONTINUOUS
 10
23443261.257666
 20
-11742127.850206
30
-16214908.584354
  0
VERTEX
  8
1
  6
CONTINUOUS
 10
23439794.110445
 20
-11741744.263211
30
-16215108.701912
  0
VERTEX
  8
1
  6
CONTINUOUS
 10
23436895.344154
 20
-11738398.443637
30
-16215183.795088
  0
VERTEX
  8
1
  6
CONTINUOUS
 10
23430756.214651
 20
-11736725.417441
30
-16215216.343020
  0
VERTEX
  8
1
  6
CONTINUOUS
 10
23412417.736424
 20
-11730089.063459
30
-16214693.706215
  0
VERTEX
  8
1
  6
CONTINUOUS
 10
23408992.804873
 20
-11728699.428133
30
-16214799.172385
  0
VERTEX
  8
1
  6
CONTINUOUS
 10
23405034.969676
 20
-11727521.927051
30
-16214839.123772
  0
VERTEX
  8
1
  6
CONTINUOUS
 10
23402893.694120
 20
-11725164.835668
30
-16214899.073213
  0
SEQEND
  8
0
  0
POLYLINE
  8
1
  6
CONTINUOUS
 66
     1
 70
     0
 210
0.994480
 220
0.013204
 230
0.104090
 10
0.000000
 20
0.000000
30
-26819373.459842
  0
VERTEX
  8
1
  6
CONTINUOUS
 10
2828300.750311
 20
-13696932.025557
30
-26819373.459842
  0
VERTEX
  8
1
  6
CONTINUOUS
 10
2780070.899907
 20
-13694110.562805
30
-26819290.225711
  0
VERTEX
  8
1
  6
CONTINUOUS
 10
2712625.718953
 20
-13695966.533073
30
-26819360.469006
  0
VERTEX
  8
1
  6
CONTINUOUS
 10
2697328.405440
 20
-13695944.555259
30
-26819474.393371
  0
VERTEX
  8
1
  6
CONTINUOUS
 10
2680152.287721
 20
-13695961.052379
30
-26819316.765836
  0
SEQEND
  8
0
  0
POLYLINE
  8
1
  6
CONTINUOUS
 66
     1
 70
     0
 210
0.044766
 220
-0.626131
 230
-0.778432
 10
0.000000
 20
0.000000
30
10065328.043750
  0
VERTEX
  8
1
  6
CONTINUOUS
 10
-25090608.842585
 20
-13671866.461195
30
10065328.043750
  0
VERTEX
  8
1
  6
CONTINUOUS
 10
-25081438.487813
 20
-13685658.996141
30
10066636.214854
  0
VERTEX
  8
1
  6
CONTINUOUS
 10
-25074987.747036
 20
-13687615.368467
30
10065753.578412
  0
VERTEX
  8
1
  6
CONTINUOUS
 10
-25059428.977729
 20
-13685302.228406
30
10066203.361932
  0
VERTEX
  8
1
  6
CONTINUOUS
 10
-25050126.080375
 20
-13679163.074545
30
10065530.633272
  0
VERTEX
  8
1
  6
CONTINUOUS
 10
-25042345.663516
 20
-13669829.859891
30
10066687.230761
  0
SEQEND
  8
0
  0
POLYLINE
  8
1
  6
CONTINUOUS
 66
     1
 70
     0
 210
-0.500857
 220
0.248896
 230
0.828971
 10
0.000000
 20
0.000000
30
-228301.345140
  0
VERTEX
  8
1
  6
CONTINUOUS
 10
9327146.568937
 20
-28593406.898974
30
-228301.345140
  0
VERTEX
  8
1
  6
CONTINUOUS
 10
9321739.718203
 20
-28592308.299966
30
-229332.546748
  0
VERTEX
  8
1
  6
CONTINUOUS
 10
9316688.763996
 20
-28595459.208936
30
-228572.116130
  0
VERTEX
  8
1
  6
CONTINUOUS
 10
9312742.349811
 20
-28597761.145061
30
-228843.715036
  0
VERTEX
  8
1
  6
CONTINUOUS
 10
9311891.609979
 20
-28597653.391163
30
-229399.784659
  0
SEQEND
  8
0
  0
POLYLINE
  8
1
  6
CONTINUOUS
 66
     1
 70
     0
 210
0.016917
 220
0.027444
 230
-0.999480
 10
0.000000
 20
0.000000
30
15642409.346040
  0
VERTEX
  8
1
  6
CONTINUOUS
 10
22526060.059030
 20
-11986651.192472
30
15642409.346040
  0
VERTEX
  8
1
  6
CONTINUOUS
 10
22529889.964274
 20
-11990618.214259
30
15642281.385217
  0
VERTEX
  8
1
  6
CONTINUOUS
 10
22533414.405144
 20
-11992656.553894
30
15642486.276927
  0
VERTEX
  8
1
  6
CONTINUOUS
 10
22536349.469698
 20
-11993953.524936
30
15642334.184329
  0
VERTEX
  8
1
  6
CONTINUOUS
 10
22539528.234542
 20
-11994442.679707
30
15642328.411284
  0
VERTEX
  8
1
  6
CONTINUOUS
 10
22539597.261696
 20
-11994308.533143
30
15642322.733134
  0
SEQEND
  8
0
  0
POLYLINE
  8
1
  6
CONTINUOUS
 66
     1
 70
     0
 210
0.162607
 220
0.640435
 230
-0.750601
 10
0.000000
 20
0.000000
30
9236044.031382
  0
VERTEX
  8
1
  6
CONTINUOUS
 10
24943063.943073
 20
-13745194.428671
30
9236044.031382
  0
VERTEX
  8
1
  6
CONTINUOUS
 10
24943269.424768
 20
-13745069.489968
30
9236154.015216
  0
VERTEX
  8
1
  6
CONTINUOUS
 10
24946422.625201
 20
-13745579.600138
30
9236212.157633
  0
VERTEX
  8
1
  6
CONTINUOUS
 10
24948989.033540
 20
-13748279.875611
30
9236197.206093
  0
VERTEX
  8
1
  6
CONTINUOUS
 10
24951555.842527
 20
-13751167.845183
30
9236270.557182
  0
VERTEX
  8
1
  6
CONTINUOUS
 10
24955051.254231
 20
-13753160.584924
30
9236357.934753
  0
VERTEX
  8
1
  6
CONTINUOUS
 10
24958539.671751
 20
-13753376.525373
30
9236114.551235
  0
VERTEX
  8
1
  6
CONTINUOUS
 10
24960970.909020
 20
-13752993.568818
30
9236438.212906
  0
SEQEND
  8
0
  0
POLYLINE
  8
1
  6
CONTINUOUS
 66
     1
 70
     0
 210
0.246422
 220
0.375535
 230
-0.893448
 10
0.000000
 20
0.000000
30
8861785.626723
  0
VERTEX
  8
1
  6
CONTINUOUS
 10
22223725.001573
 20
-18027066.226295
30
8861785.626723
  0
VERTEX
  8
1
  6
CONTINUOUS
 10
22225208.690085
 20
-18027204.702124
30
8861716.010242
  0
VERTEX
  8
1
  6
CONTINUOUS
 10
22227072.403563
 20
-18028607.783553
30
8861021.826360
  0
VERTEX
  8
1
  6
CONTINUOUS
 10
22228745.565659
 20
-18031620.832489
30
8860516.077004
  0
VERTEX
  8
1
  6
CONTINUOUS
 10
22229979.903363
 20
-18034755.656849
30
8860588.204062
  0
VERTEX
  8
1
  6
CONTINUOUS
 10
22232199.144177
 20
-18037619.784355
30
8861390.634320
  0
VERTEX
  8
1
  6
CONTINUOUS
 10
22234963.314697
 20
-18039281.315144
30
8860824.396539
  0
VERTEX
  8
1
  6
CONTINUOUS
 10
22237293.801973
 20
-18040245.809402
30
8860339.512665
  0
VERTEX
  8
1
  6
CONTINUOUS
 10
22240177.356259
 20
-18041219.092343
30
8859850.210422
  0
VERTEX
  8
1
  6
CONTINUOUS
 10
22240769.003302
 20
-18041202.942066
30
8859847.137120
  0
SEQEND
  8
0
  0
POLYLINE
  8
1
  6
CONTINUOUS
 66
     1
 70
     0
 210
0.358016
 220
-0.233480
 230
-0.904053
 10
0.000000
 20
0.000000
30
4956027.571079
  0
VERTEX
  8
1
  6
CONTINUOUS
 10
-12072623.733652
 20
-26986057.056537
30
4956027.571079
  0
VERTEX
  8
1
  6
CONTINUOUS
 10
-12073758.185725
 20
-26987647.747607
30
4955275.519571
  0
VERTEX
  8
1
  6
CONTINUOUS
 10
-12076651.744258
 20
-26989900.753084
30
4954963.832928
  0
VERTEX
  8
1
  6
CONTINUOUS
 10
-12079722.780372
 20
-26990741.941979
30
4954543.900005
  0
VERTEX
  8
1
  6
CONTINUOUS
 10
-12082985.109733
 20
-26992504.722778
30
4954718.835558
  0
VERTEX
  8
1
  6
CONTINUOUS
 10
-12085219.622650
 20
-26995021.347935
30
4954592.672905
  0
VERTEX
  8
1
  6
CONTINUOUS
 10
-12086174.541915
 20
-26997822.749932
30
4955883.109398
  0
VERTEX
  8
1
  6
CONTINUOUS
 10
-12086765.167552
 20
-27000145.977875
30
4954840.144111
  0
VERTEX
  8
1
  6
CONTINUOUS
 10
-12087352.616757
 20
-27003816.963187
30
4954002.079006
  0
VERTEX
  8
1
  6
CONTINUOUS
 10
-12087349.674753
 20
-27004626.196447
30
4953763.505504
  0
SEQEND
  8
0
  0
POLYLINE
  8
1
  6
CONTINUOUS
 66
     1
 70
     0
 210
0.184085
 220
-0.529934
 230
-0.827818
 10
0.000000
 20
0.000000
30
7519351.281206
  0
VERTEX
  8
1
  6
CONTINUOUS
 10
-23199133.391700
 20
-17464710.014536
30
7519351.281206
  0
VERTEX
  8
1
  6
CONTINUOUS
 10
-23202758.144591
 20
-17462658.406189
30
7516833.150054
  0
VERTEX
  8
1
  6
CONTINUOUS
 10
-23206629.395119
 20
-17459079.332967
30
7515507.555655
  0
VERTEX
  8
1
  6
CONTINUOUS
 10
-23209118.722251
 20
-17459490.159753
30
7518278.488218
  0
VERTEX
  8
1
  6
CONTINUOUS
 10
-23212786.730912
 20
-17459645.288891
30
7518173.360042
  0
VERTEX
  8
1
  6
CONTINUOUS
 10
-23216685.253088
 20
-17460750.363485
30
7518658.679950
  0
VERTEX
  8
1
  6
CONTINUOUS
 10
-23219259.108488
 20
-17462391.348674
30
7518163.779100
  0
VERTEX
  8
1
  6
CONTINUOUS
 10
-23221381.900885
 20
-17464369.314937
30
7516823.347585
  0
VERTEX
  8
1
  6
CONTINUOUS
 10
-23223193.117298
 20
-17466501.481880
30
7515378.417093
  0
VERTEX
  8
1
  6
CONTINUOUS
 10
-23223920.108882
 20
-17467968.047217
30
7515655.001201
  0
SEQEND
  8
0
  0
POLYLINE
  8
1
  6
CONTINUOUS
 66
     1
 70
     0
 210
0.170715
 220
-0.156492
 230
-0.972814
 10
0.000000
 20
0.000000
30
10944335.773432
  0
VERTEX
  8
1
  6
CONTINUOUS
 10
-15578034.843261
 20
-23204543.479327
30
10944335.773432
  0
VERTEX
  8
1
  6
CONTINUOUS
 10
-15578732.052136
 20
-23206389.596400
30
10942526.856046
  0
VERTEX
  8
1
  6
CONTINUOUS
 10
-15580499.171568
 20
-23207850.561239
30
10942436.455496
  0
VERTEX
  8
1
  6
CONTINUOUS
 10
-15583507.574902
 20
-23208580.601134
30
10943858.650610
  0
VERTEX
  8
1
  6
CONTINUOUS
 10
-15586984.768896
 20
-23209874.829318
30
10945980.610043
  0
VERTEX
  8
1
  6
CONTINUOUS
 10
-15590393.097625
 20
-23211034.988696
30
10945992.760604
  0
VERTEX
  8
1
  6
CONTINUOUS
 10
-15592902.611618
 20
-23213120.553191
30
10945475.710882
  0
VERTEX
  8
1
  6
CONTINUOUS
 10
-15594404.910246
 20
-23215986.478488
30
10944793.446892
  0
VERTEX
  8
1
  6
CONTINUOUS
 10
-15595071.662798
 20
-23218910.859574
30
10944488.503107
  0
VERTEX
  8
1
  6
CONTINUOUS
 10
-15595289.074879
 20
-23221818.150589
30
10945042.364847
  0
VERTEX
  8
1
  6
CONTINUOUS
 10
-15595182.394096
 20
-23222886.963163
30
10944932.040671
  0
SEQEND
  8
0
  0
POLYLINE
  8
1
  6
CONTINUOUS
 66
     1
 70
     0
 210
0.408413
 220
-0.638067
 230
-0.652740
 10
0.000000
 20
0.000000
30
-1198831.092142
  0
VERTEX
  8
1
  6
CONTINUOUS
 10
-20218792.100333
 20
-22176955.905564
30
-1198831.092142
  0
VERTEX
  8
1
  6
CONTINUOUS
 10
-20220120.914893
 20
-22177851.550949
30
-1199870.594383
  0
VERTEX
  8
1
  6
CONTINUOUS
 10
-20223425.156484
 20
-22179257.139711
30
-1200059.411750
  0
VERTEX
  8
1
  6
CONTINUOUS
 10
-20226975.444294
 20
-22180539.080843
30
-1198892.447164
  0
VERTEX
  8
1
  6
CONTINUOUS
 10
-20231003.751974
 20
-22181456.742722
30
-1198499.647728
  0
VERTEX
  8
1
  6
CONTINUOUS
 10
-20233768.737994
 20
-22183008.448939
30
-1198950.125061
  0
VERTEX
  8
1
  6
CONTINUOUS
 10
-20235895.549700
 20
-22185078.903286
30
-1199081.936828
  0
VERTEX
  8
1
  6
CONTINUOUS
 10
-20237545.345310
 20
-22188437.448161
30
-1199066.575345
  0
VERTEX
  8
1
  6
CONTINUOUS
 10
-20237930.623440
 20
-22191180.010322
30
-1199548.720654
  0
SEQEND
  8
0
  0
POLYLINE
  8
1
  6
CONTINUOUS
 66
     1
 70
     0
 210
-0.275495
 220
-0.203786
 230
0.939454
 10
0.000000
 20
0.000000
30
-8485388.213494
  0
VERTEX
  8
1
  6
CONTINUOUS
 10
-16724161.392267
 20
-23481525.766850
30
-8485388.213494
  0
VERTEX
  8
1
  6
CONTINUOUS
 10
-16725933.887206
 20
-23481962.779861
30
-8485218.164209
  0
VERTEX
  8
1
  6
CONTINUOUS
 10
-16727431.324048
 20
-23484064.403010
30
-8485048.731829
  0
VERTEX
  8
1
  6
CONTINUOUS
 10
-16727963.753231
 20
-23487789.957237
30
-8485299.776945
  0
VERTEX
  8
1
  6
CONTINUOUS
 10
-16727681.176421
 20
-23490863.389979
30
-8485117.023051
  0
VERTEX
  8
1
  6
CONTINUOUS
 10
-16729010.381201
 20
-23494136.279917
30
-8484637.555298
  0
VERTEX
  8
1
  6
CONTINUOUS
 10
-16729674.454548
 20
-23495116.778247
30
-8484759.762069
  0
SEQEND
  8
0
  0
POLYLINE
  8
1
  6
HIDDEN
 66
     1
 70
     0
 210
0.441083
 220
-0.550637
 230
-0.708693
 10
0.000000
 20
0.000000
30
-969125.295739
  0
VERTEX
  8
1
  6
HIDDEN
 10
-18510753.398224
 20
-23677960.594760
30
-969125.295739
  0
VERTEX
  8
1
  6
HIDDEN
 10
-18513342.924914
 20
-23680851.541248
30
-969515.609379
  0
VERTEX
  8
1
  6
HIDDEN
 10
-18517512.317898
 20
-23682966.150898
30
-969472.280981
  0
VERTEX
  8
1
  6
HIDDEN
 10
-18520263.942868
 20
-23683483.903709
30
-969408.196108
  0
VERTEX
  8
1
  6
HIDDEN
 10
-18523595.861178
 20
-23685592.587059
30
-969005.641389
  0
VERTEX
  8
1
  6
HIDDEN
 10
-18525707.813660
 20
-23689220.900927
30
-969550.641754
  0
VERTEX
  8
1
  6
HIDDEN
 10
-18525982.488761
 20
-23691330.964936
30
-969601.702591
  0
SEQEND
  8
0
  0
POLYLINE
  8
1
  6
CONTINUOUS
 66
     1
 70
     0
 210
0.371192
 220
-0.820116
 230
0.435461
 10
0.000000
 20
0.000000
30
-18087019.173755
  0
VERTEX
  8
1
  6
CONTINUOUS
 10
-22279073.689136
 20
-9046522.557080
30
-18087019.173755
  0
VERTEX
  8
1
  6
CONTINUOUS
 10
-22281985.980650
 20
-9046469.463587
30
-18088877.193848
  0
VERTEX
  8
1
  6
CONTINUOUS
 10
-22285425.625738
 20
-9047135.119247
30
-18088766.211900
  0
VERTEX
  8
1
  6
CONTINUOUS
 10
-22288769.351348
 20
-9047644.139261
30
-18087989.968450
  0
VERTEX
  8
1
  6
CONTINUOUS
 10
-22291524.605505
 20
-9048622.139239
30
-18087210.557455
  0
VERTEX
  8
1
  6
CONTINUOUS
 10
-22293314.116672
 20
-9050639.433920
30
-18088238.929701
  0
VERTEX
  8
1
  6
CONTINUOUS
 10
-22293900.992330
 20
-9052255.595859
30
-18089360.542810
  0
SEQEND
  8
0
  0
POLYLINE
  8
1
  6
CONTINUOUS
 66
     1
 70
     0
 210
0.420273
 220
-0.371602
 230
-0.827818
 10
0.000000
 20
0.000000
30
1822717.410134
  0
VERTEX
  8
1
  6
CONTINUOUS
 10
-15287317.267986
 20
-25873132.517372
30
1822717.410134
  0
VERTEX
  8
1
  6
CONTINUOUS
 10
-15287468.541878
 20
-25874106.278246
30
1821198.384239
  0
VERTEX
  8
1
  6
CONTINUOUS
 10
-15289166.582179
 20
-25874737.493590
30
1819318.490309
  0
VERTEX
  8
1
  6
CONTINUOUS
 10
-15292028.301933
 20
-25875699.879443
30
1818968.781179
  0
VERTEX
  8
1
  6
CONTINUOUS
 10
-15295378.165889
 20
-25877045.658696
30
1820198.546819
  0
VERTEX
  8
1
  6
CONTINUOUS
 10
-15297575.843624
 20
-25877899.719387
30
1820128.090021
  0
VERTEX
  8
1
  6
CONTINUOUS
 10
-15299267.748540
 20
-25881226.389168
30
1820656.767366
  0
VERTEX
  8
1
  6
CONTINUOUS
 10
-15300425.261340
 20
-25884163.994658
30
1820565.699549
  0
VERTEX
  8
1
  6
CONTINUOUS
 10
-15301225.907955
 20
-25886223.016338
30
1819666.462199
  0
VERTEX
  8
1
  6
CONTINUOUS
 10
-15301804.573805
 20
-25888094.170170
30
1818265.294754
  0
VERTEX
  8
1
  6
CONTINUOUS
 10
-15301700.980920
 20
-25889863.548155
30
1817054.140032
  0
SEQEND
  8
0
  0
POLYLINE
  8
1
  6
CONTINUOUS
 66
     1
 70
     0
 210
0.362708
 220
-0.547033
 230
-0.754452
 10
0.000000
 20
0.000000
30
1740447.051718
  0
VERTEX
  8
1
  6
CONTINUOUS
 10
-20053717.738692
 20
-22417679.996881
30
1740447.051718
  0
VERTEX
  8
1
  6
CONTINUOUS
 10
-20055452.320983
 20
-22416489.720243
30
1738707.702302
  0
VERTEX
  8
1
  6
CONTINUOUS
 10
-20057415.474624
 20
-22414417.539933
30
1737801.860859
  0
VERTEX
  8
1
  6
CONTINUOUS
 10
-20060018.256366
 20
-22414233.073976
30
1738055.389396
  0
VERTEX
  8
1
  6
CONTINUOUS
 10
-20063097.746411
 20
-22415453.063357
30
1739689.228999
  0
VERTEX
  8
1
  6
CONTINUOUS
 10
-20065649.845825
 20
-22416699.754036
30
1739759.781268
  0
VERTEX
  8
1
  6
CONTINUOUS
 10
-20067173.307546
 20
-22417672.263887
30
1738807.419082
  0
VERTEX
  8
1
  6
CONTINUOUS
 10
-20068384.844860
 20
-22418426.422045
30
1738589.518598
  0
VERTEX
  8
1
  6
CONTINUOUS
 10
-20070137.544357
 20
-22420185.332421
30
1738267.470806
  0
VERTEX
  8
1
  6
CONTINUOUS
 10
-20071867.964127
 20
-22421607.074854
30
1736990.825558
  0
SEQEND
  8
0
  0
POLYLINE
  8
1
  6
CONTINUOUS
 66
     1
 70
     0
 210
-0.049238
 220
-0.670588
 230
0.740194
 10
0.000000
 20
0.000000
30
-11987085.125855
  0
VERTEX
  8
1
  6
CONTINUOUS
 10
-25530869.819080
 20
-10634677.122042
30
-11987085.125855
  0
VERTEX
  8
1
  6
CONTINUOUS
 10
-25533041.199485
 20
-10633030.617197
30
-11987471.103927
  0
VERTEX
  8
1
  6
CONTINUOUS
 10
-25535511.736096
 20
-10633821.887602
30
-11987198.817439
  0
VERTEX
  8
1
  6
CONTINUOUS
 10
-25537435.484487
 20
-10636091.479714
30
-11987261.830151
  0
VERTEX
  8
1
  6
CONTINUOUS
 10
-25539276.246545
 20
-10637324.821802
30
-11987535.419372
  0
SEQEND
  8
0
  0
POLYLINE
  8
1
  6
CONTINUOUS
 66
     1
 70
     0
 210
-0.653760
 220
-0.589308
 230
-0.474673
 10
0.000000
 20
0.000000
30
23044609.755497
  0
VERTEX
  8
1
  6
CONTINUOUS
 10
-18579035.950163
 20
-5780358.436389
30
23044609.755497
  0
VERTEX
  8
1
  6
CONTINUOUS
 10
-18581176.824577
 20
-5778571.607107
30
23044609.755497
  0
VERTEX
  8
1
  6
CONTINUOUS
 10
-18584316.850346
 20
-5778548.884028
30
23044609.755497
  0
SEQEND
  8
0
  0
POLYLINE
  8
1
  6
CONTINUOUS
 66
     1
 70
     0
 210
-0.015559
 220
0.106595
 230
-0.994181
 10
0.000000
 20
0.000000
30
16552131.865831
  0
VERTEX
  8
1
  6
CONTINUOUS
 10
24904988.758734
 20
3963616.469157
30
16552131.865831
  0
VERTEX
  8
1
  6
CONTINUOUS
 10
24908057.083726
 20
3964273.694731
30
16552303.765312
  0
VERTEX
  8
1
  6
CONTINUOUS
 10
24911044.274807
 20
3962490.853280
30
16552100.527286
  0
VERTEX
  8
1
  6
CONTINUOUS
 10
24914111.842793
 20
3959502.829984
30
16552220.140626
  0
VERTEX
  8
1
  6
CONTINUOUS
 10
24915744.533406
 20
3958591.799652
30
16552171.819331
  0
VERTEX
  8
1
  6
CONTINUOUS
 10
24918819.025601
 20
3958256.014845
30
16552105.159240
  0
VERTEX
  8
1
  6
CONTINUOUS
 10
24922039.190428
 20
3958796.355344
30
16552163.707747
  0
VERTEX
  8
1
  6
CONTINUOUS
 10
24924040.260996
 20
3959288.590267
30
16552217.043781
  0
SEQEND
  8
0
  0
POLYLINE
  8
1
  6
CONTINUOUS
 66
     1
 70
     0
 210
0.015890
 220
-0.026818
 230
-0.999514
 10
0.000000
 20
0.000000
30
15556091.355559
  0
VERTEX
  8
1
  6
CONTINUOUS
 10
-20880269.429284
 20
-15256677.810517
30
15556091.355559
  0
VERTEX
  8
1
  6
CONTINUOUS
 10
-20882785.549652
 20
-15258319.784790
30
15555308.591180
  0
VERTEX
  8
1
  6
CONTINUOUS
 10
-20885217.460290
 20
-15258488.828799
30
15555533.731116
  0
VERTEX
  8
1
  6
CONTINUOUS
 10
-20888604.794032
 20
-15258594.458741
30
15556562.738465
  0
VERTEX
  8
1
  6
CONTINUOUS
 10
-20892111.892580
 20
-15259595.965568
30
15557313.183972
  0
VERTEX
  8
1
  6
CONTINUOUS
 10
-20894664.968955
 20
-15261102.805086
30
15557867.481818
  0
VERTEX
  8
1
  6
CONTINUOUS
 10
-20897076.559925
 20
-15263042.412866
30
15555511.975235
  0
VERTEX
  8
1
  6
CONTINUOUS
 10
-20899155.596594
 20
-15264886.948464
30
15555444.444153
  0
VERTEX
  8
1
  6
CONTINUOUS
 10
-20900109.753840
 20
-15267831.875810
30
15556545.179167
  0
VERTEX
  8
1
  6
CONTINUOUS
 10
-20900335.101507
 20
-15268928.438382
30
15556510.980261
  0
SEQEND
  8
0
  0
POLYLINE
  8
1
  6
CONTINUOUS
 66
     1
 70
     0
 210
-0.171202
 220
-0.865615
 230
-0.470532
 10
0.000000
 20
0.000000
30
10124770.579540
  0
VERTEX
  8
1
  6
CONTINUOUS
 10
-25422937.344372
 20
-12761897.325898
30
10124770.579540
  0
VERTEX
  8
1
  6
CONTINUOUS
 10
-25426273.698940
 20
-12761651.063148
30
10125232.393693
  0
VERTEX
  8
1
  6
CONTINUOUS
 10
-25428896.892244
 20
-12761296.860618
30
10124896.055664
  0
VERTEX
  8
1
  6
CONTINUOUS
 10
-25430843.260750
 20
-12760764.638494
30
10125106.506725
  0
VERTEX
  8
1
  6
CONTINUOUS
 10
-25432393.895962
 20
-12760195.019049
30
10124854.924475
  0
VERTEX
  8
1
  6
CONTINUOUS
 10
-25434130.984206
 20
-12760171.989464
30
10124876.646546
  0
VERTEX
  8
1
  6
CONTINUOUS
 10
-25435807.155987
 20
-12760211.487929
30
10124930.303353
  0
VERTEX
  8
1
  6
CONTINUOUS
 10
-25438081.454175
 20
-12760403.450379
30
10124591.783115
  0
VERTEX
  8
1
  6
CONTINUOUS
 10
-25439269.685576
 20
-12760265.099841
30
10124851.230539
  0
VERTEX
  8
1
  6
CONTINUOUS
 10
-25441056.008682
 20
-12760400.127024
30
10124598.015370
  0
VERTEX
  8
1
  6
CONTINUOUS
 10
-25441943.951486
 20
-12760105.248342
30
10125172.251070
  0
VERTEX
  8
1
  6
CONTINUOUS
 10
-25443444.142977
 20
-12760136.008036
30
10125114.567714
  0
VERTEX
  8
1
  6
CONTINUOUS
 10
-25445035.422047
 20
-12759909.354606
30
10125539.608697
  0
VERTEX
  8
1
  6
CONTINUOUS
 10
-25446918.348978
 20
-12759954.331460
30
10125455.264038
  0
VERTEX
  8
1
  6
CONTINUOUS
 10
-25448395.123976
 20
-12760054.276901
30
10125267.837320
  0
SEQEND
  8
0
  0
POLYLINE
  8
1
  6
CONTINUOUS
 66
     1
 70
     0
 210
-0.495855
 220
-0.838620
 230
-0.225486
 10
0.000000
 20
0.000000
30
14546749.690359
  0
VERTEX
  8
1
  6
CONTINUOUS
 10
-23030968.367950
 20
-13092802.162569
30
14546749.690359
  0
VERTEX
  8
1
  6
CONTINUOUS
 10
-23033058.472949
 20
-13087046.348387
30
14545897.225999
  0
VERTEX
  8
1
  6
CONTINUOUS
 10
-23035369.954692
 20
-13086652.518393
30
14546488.337443
  0
VERTEX
  8
1
  6
CONTINUOUS
 10
-23037937.975859
 20
-13087662.898484
30
14546476.101041
  0
VERTEX
  8
1
  6
CONTINUOUS
 10
-23039365.930255
 20
-13088728.267407
30
14545871.488249
  0
SEQEND
  8
0
  0
POLYLINE
  8
1
  6
CONTINUOUS
 66
     1
 70
     0
 210
0.461010
 220
-0.239254
 230
-0.854533
 10
0.000000
 20
0.000000
30
1424235.637255
  0
VERTEX
  8
1
  6
CONTINUOUS
 10
-9934513.700278
 20
-28515376.737990
30
1424235.637255
  0
VERTEX
  8
1
  6
CONTINUOUS
 10
-9935403.636250
 20
-28517584.468661
30
1423374.362019
  0
VERTEX
  8
1
  6
CONTINUOUS
 10
-9937669.157133
 20
-28519392.465883
30
1423412.548963
  0
VERTEX
  8
1
  6
CONTINUOUS
 10
-9940896.623484
 20
-28521391.414948
30
1424248.856144
  0
VERTEX
  8
1
  6
CONTINUOUS
 10
-9942686.659448
 20
-28522619.383456
30
1423561.108800
  0
VERTEX
  8
1
  6
CONTINUOUS
 10
-9944641.015896
 20
-28524950.138320
30
1423551.060460
  0
VERTEX
  8
1
  6
CONTINUOUS
 10
-9945857.368722
 20
-28528629.063620
30
1423612.588717
  0
VERTEX
  8
1
  6
CONTINUOUS
 10
-9945635.239929
 20
-28532328.718517
30
1423884.094911
  0
VERTEX
  8
1
  6
CONTINUOUS
 10
-9944901.492256
 20
-28534816.714809
30
1424235.681803
  0
VERTEX
  8
1
  6
CONTINUOUS
 10
-9943717.995088
 20
-28537163.664699
30
1423289.787245
  0
VERTEX
  8
1
  6
CONTINUOUS
 10
-9942551.297662
 20
-28538693.898912
30
1423156.850607
  0
SEQEND
  8
0
  0
POLYLINE
  8
1
  6
CONTINUOUS
 66
     1
 70
     0
 210
0.265690
 220
0.669925
 230
-0.693260
 10
0.000000
 20
0.000000
30
5742612.095482
  0
VERTEX
  8
1
  6
CONTINUOUS
 10
24535982.518219
 20
-16766441.864357
30
5742612.095482
  0
VERTEX
  8
1
  6
CONTINUOUS
 10
24538555.314485
 20
-16766075.398766
30
5743253.134484
  0
VERTEX
  8
1
  6
CONTINUOUS
 10
24542109.910692
 20
-16768738.297777
30
5742262.140573
  0
VERTEX
  8
1
  6
CONTINUOUS
 10
24543826.737494
 20
-16772345.171332
30
5741358.977620
  0
VERTEX
  8
1
  6
CONTINUOUS
 10
24546909.475145
 20
-16775715.670050
30
5740585.999920
  0
VERTEX
  8
1
  6
CONTINUOUS
 10
24549547.590644
 20
-16777566.752324
30
5740540.056015
  0
VERTEX
  8
1
  6
CONTINUOUS
 10
24552454.296079
 20
-16778226.111168
30
5740663.831414
  0
VERTEX
  8
1
  6
CONTINUOUS
 10
24555202.787074
 20
-16778572.876320
30
5740303.347631
  0
SEQEND
  8
0
  0
POLYLINE
  8
1
  6
CONTINUOUS
 66
     1
 70
     0
 210
0.274333
 220
-0.758396
 230
-0.591251
 10
0.000000
 20
0.000000
30
896509.346789
  0
VERTEX
  8
1
  6
CONTINUOUS
 10
-23357629.140001
 20
-19242752.674338
30
896509.346789
  0
VERTEX
  8
1
  6
CONTINUOUS
 10
-23358255.115924
 20
-19244697.687450
30
895431.919662
  0
VERTEX
  8
1
  6
CONTINUOUS
 10
-23360146.452891
 20
-19245614.303212
30
894181.621664
  0
VERTEX
  8
1
  6
CONTINUOUS
 10
-23363065.344631
 20
-19245461.633988
30
894389.868165
  0
VERTEX
  8
1
  6
CONTINUOUS
 10
-23365479.678351
 20
-19245210.359324
30
894732.616155
  0
VERTEX
  8
1
  6
CONTINUOUS
 10
-23368827.987225
 20
-19245429.326168
30
895823.195772
  0
VERTEX
  8
1
  6
CONTINUOUS
 10
-23371655.932985
 20
-19245495.739485
30
895783.345440
  0
VERTEX
  8
1
  6
CONTINUOUS
 10
-23375077.864341
 20
-19247208.081922
30
895548.447765
  0
VERTEX
  8
1
  6
CONTINUOUS
 10
-23377694.690924
 20
-19249862.764888
30
894892.263096
  0
VERTEX
  8
1
  6
CONTINUOUS
 10
-23379285.948475
 20
-19251719.090794
30
894257.668736
  0
VERTEX
  8
1
  6
CONTINUOUS
 10
-23380867.373553
 20
-19254109.519981
30
893555.171164
  0
SEQEND
  8
0
  0
POLYLINE
  8
1
  6
CONTINUOUS
 66
     1
 70
     0
 210
-0.446853
 220
-0.262890
 230
0.855109
 10
0.000000
 20
0.000000
30
-2804317.829078
  0
VERTEX
  8
1
  6
CONTINUOUS
 10
-14769353.937056
 20
-26297037.408015
30
-2804317.829078
  0
VERTEX
  8
1
  6
CONTINUOUS
 10
-14770348.624738
 20
-26298784.256772
30
-2804722.980710
  0
VERTEX
  8
1
  6
CONTINUOUS
 10
-14770524.740060
 20
-26300766.225182
30
-2804317.829078
  0
VERTEX
  8
1
  6
CONTINUOUS
 10
-14770505.826630
 20
-26302474.497308
30
-2804722.980710
  0
SEQEND
  8
0
  0
POLYLINE
  8
1
  6
CONTINUOUS
 66
     1
 70
     0
 210
0.005419
 220
-0.008471
 230
0.999949
 10
0.000000
 20
0.000000
30
-16191148.170640
  0
VERTEX
  8
1
  6
CONTINUOUS
 10
-25611564.464216
 20
1932266.924931
30
-16191148.170640
  0
VERTEX
  8
1
  6
CONTINUOUS
 10
-25613745.995305
 20
1933500.935488
30
-16191140.345311
  0
VERTEX
  8
1
  6
CONTINUOUS
 10
-25615984.962426
 20
1932992.250953
30
-16191148.170640
  0
VERTEX
  8
1
  6
CONTINUOUS
 10
-25617183.944819
 20
1931301.356576
30
-16191140.345311
  0
SEQEND
  8
0
  0
POLYLINE
  8
1
  6
CONTINUOUS
 66
     1
 70
     0
 210
-0.049696
 220
-0.123061
 230
0.991154
 10
0.000000
 20
0.000000
30
-14869604.612655
  0
VERTEX
  8
1
  6
CONTINUOUS
 10
-24621543.864303
 20
-9773427.641949
30
-14869604.612655
  0
VERTEX
  8
1
  6
CONTINUOUS
 10
-24623979.301509
 20
-9772982.680253
30
-14869866.281179
  0
VERTEX
  8
1
  6
CONTINUOUS
 10
-24626019.045694
 20
-9774786.175676
30
-14869604.612655
  0
VERTEX
  8
1
  6
CONTINUOUS
 10
-24626659.652765
 20
-9776605.436860
30
-14869866.281179
  0
SEQEND
  8
0
  0
POLYLINE
  8
1
  6
CONTINUOUS
 66
     1
 70
     0
 210
0.342940
 220
-0.385085
 230
-0.856798
 10
0.000000
 20
0.000000
30
4115798.632291
  0
VERTEX
  8
1
  6
CONTINUOUS
 10
-17849650.837358
 20
-24261618.514652
30
4115798.632291
  0
VERTEX
  8
1
  6
CONTINUOUS
 10
-17851962.881239
 20
-24264169.313058
30
4113994.558340
  0
VERTEX
  8
1
  6
CONTINUOUS
 10
-17855538.884205
 20
-24264715.262635
30
4113665.985516
  0
VERTEX
  8
1
  6
CONTINUOUS
 10
-17859263.584284
 20
-24264245.716353
30
4113960.247354
  0
VERTEX
  8
1
  6
CONTINUOUS
 10
-17863434.014637
 20
-24265633.463497
30
4114796.856000
  0
VERTEX
  8
1
  6
CONTINUOUS
 10
-17866112.415474
 20
-24268697.154265
30
4114800.239895
  0
VERTEX
  8
1
  6
CONTINUOUS
 10
-17867324.087814
 20
-24272481.944632
30
4114229.349314
  0
VERTEX
  8
1
  6
CONTINUOUS
 10
-17867938.167598
 20
-24276470.195165
30
4113500.877998
  0
VERTEX
  8
1
  6
CONTINUOUS
 10
-17867824.874122
 20
-24278624.431322
30
4112765.537646
  0
SEQEND
  8
0
  0
POLYLINE
  8
1
  6
CONTINUOUS
 66
     1
 70
     0
 210
0.215715
 220
-0.455924
 230
-0.863481
 10
0.000000
 20
0.000000
30
7347916.046322
  0
VERTEX
  8
1
  6
CONTINUOUS
 10
-22407082.173551
 20
-19219338.995961
30
7347916.046322
  0
VERTEX
  8
1
  6
CONTINUOUS
 10
-22408650.928971
 20
-19221812.506865
30
7348234.535082
  0
VERTEX
  8
1
  6
CONTINUOUS
 10
-22412602.969996
 20
-19222695.571142
30
7348878.786933
  0
VERTEX
  8
1
  6
CONTINUOUS
 10
-22416103.059626
 20
-19221797.471553
30
7349403.388805
  0
VERTEX
  8
1
  6
CONTINUOUS
 10
-22418840.945767
 20
-19221834.265003
30
7349370.200019
  0
VERTEX
  8
1
  6
CONTINUOUS
 10
-22422432.228360
 20
-19223057.264496
30
7348713.837122
  0
VERTEX
  8
1
  6
CONTINUOUS
 10
-22424702.896486
 20
-19224740.644947
30
7348681.798906
  0
VERTEX
  8
1
  6
CONTINUOUS
 10
-22425691.594361
 20
-19227680.974813
30
7348658.005368
  0
VERTEX
  8
1
  6
CONTINUOUS
 10
-22426315.870210
 20
-19230648.085703
30
7348920.138260
  0
VERTEX
  8
1
  6
CONTINUOUS
 10
-22427022.857804
 20
-19235070.779292
30
7349828.529794
  0
VERTEX
  8
1
  6
CONTINUOUS
 10
-22426969.047352
 20
-19236401.318841
30
7349840.228589
  0
SEQEND
  8
0
  0
POLYLINE
  8
1
  6
CONTINUOUS
 66
     1
 70
     0
 210
0.759410
 220
-0.581785
 230
-0.291245
 10
0.000000
 20
0.000000
30
-16132843.005738
  0
VERTEX
  8
1
  6
CONTINUOUS
 10
-14047969.955027
 20
-21669242.150589
30
-16132843.005738
  0
VERTEX
  8
1
  6
CONTINUOUS
 10
-14049927.852009
 20
-21672454.791379
30
-16134452.880505
  0
VERTEX
  8
1
  6
CONTINUOUS
 10
-14054343.128639
 20
-21672180.139952
30
-16133482.066001
  0
VERTEX
  8
1
  6
CONTINUOUS
 10
-14058568.196300
 20
-21674112.103920
30
-16132708.526302
  0
VERTEX
  8
1
  6
CONTINUOUS
 10
-14061104.898075
 20
-21677831.112294
30
-16133540.072826
  0
VERTEX
  8
1
  6
CONTINUOUS
 10
-14062515.832914
 20
-21683430.419117
30
-16134184.782450
  0
SEQEND
  8
0
  0
POLYLINE
  8
1
  6
CONTINUOUS
 66
     1
 70
     0
 210
-0.970757
 220
0.019999
 230
-0.239231
 10
0.000000
 20
0.000000
30
28934830.983445
  0
VERTEX
  8
1
  6
CONTINUOUS
 10
-1533313.124162
 20
-9385457.561472
30
28934830.983445
  0
VERTEX
  8
1
  6
CONTINUOUS
 10
-1535797.755083
 20
-9384797.143525
30
28937553.207705
  0
VERTEX
  8
1
  6
CONTINUOUS
 10
-1537374.714028
 20
-9385244.172360
30
28940177.244855
  0
VERTEX
  8
1
  6
CONTINUOUS
 10
-1536992.635482
 20
-9386459.185128
30
28943536.621988
  0
VERTEX
  8
1
  6
CONTINUOUS
 10
-1535203.588263
 20
-9387576.176683
30
28946330.332801
  0
VERTEX
  8
1
  6
CONTINUOUS
 10
-1533140.634732
 20
-9388400.886359
30
28949389.455323
  0
VERTEX
  8
1
  6
CONTINUOUS
 10
-1531729.950648
 20
-9388451.182586
30
28953121.259626
  0
VERTEX
  8
1
  6
CONTINUOUS
 10
-1531513.280899
 20
-9388651.000909
30
28956706.844051
  0
VERTEX
  8
1
  6
CONTINUOUS
 10
-1532442.979495
 20
-9388784.026731
30
28960814.739072
  0
VERTEX
  8
1
  6
CONTINUOUS
 10
-1534827.825382
 20
-9389328.937034
30
28962832.086082
  0
SEQEND
  8
0
  0
POLYLINE
  8
1
  6
CONTINUOUS
 66
     1
 70
     0
 210
0.327131
 220
-0.176204
 230
-0.928406
 10
0.000000
 20
0.000000
30
6075554.887807
  0
VERTEX
  8
1
  6
CONTINUOUS
 10
-10431641.508325
 20
-27990528.795239
30
6075554.887807
  0
VERTEX
  8
1
  6
CONTINUOUS
 10
-10431182.458114
 20
-27992634.627502
30
6074593.391305
  0
VERTEX
  8
1
  6
CONTINUOUS
 10
-10432739.470427
 20
-27994547.074245
30
6074356.637923
  0
VERTEX
  8
1
  6
CONTINUOUS
 10
-10436030.499602
 20
-27995990.738044
30
6075310.941757
  0
VERTEX
  8
1
  6
CONTINUOUS
 10
-10439175.675694
 20
-27997663.371930
30
6074803.408847
  0
VERTEX
  8
1
  6
CONTINUOUS
 10
-10441796.011570
 20
-28000785.434969
30
6075042.789643
  0
VERTEX
  8
1
  6
CONTINUOUS
 10
-10443234.751160
 20
-28004630.972434
30
6075143.739983
  0
VERTEX
  8
1
  6
CONTINUOUS
 10
-10442909.874678
 20
-28007405.423779
30
6074702.342300
  0
VERTEX
  8
1
  6
CONTINUOUS
 10
-10442927.313489
 20
-28009311.449757
30
6074219.991330
  0
SEQEND
  8
0
  0
POLYLINE
  8
1
  6
CONTINUOUS
 66
     1
 70
     0
 210
0.335096
 220
-0.088786
 230
-0.937991
 10
0.000000
 20
0.000000
30
6193426.327398
  0
VERTEX
  8
1
  6
CONTINUOUS
 10
-4624677.524352
 20
-29504017.203357
30
6193426.327398
  0
VERTEX
  8
1
  6
CONTINUOUS
 10
-4624550.084397
 20
-29506525.354483
30
6194037.236333
  0
VERTEX
  8
1
  6
CONTINUOUS
 10
-4626795.216616
 20
-29509616.528057
30
6195222.873547
  0
VERTEX
  8
1
  6
CONTINUOUS
 10
-4629911.167550
 20
-29511901.710549
30
6195254.026613
  0
VERTEX
  8
1
  6
CONTINUOUS
 10
-4633304.337069
 20
-29516041.979311
30
6194813.126209
  0
VERTEX
  8
1
  6
CONTINUOUS
 10
-4634446.815891
 20
-29520167.058655
30
6195125.394364
  0
VERTEX
  8
1
  6
CONTINUOUS
 10
-4633975.248796
 20
-29523973.895600
30
6195181.499733
  0
VERTEX
  8
1
  6
CONTINUOUS
 10
-4632988.877644
 20
-29527247.654323
30
6195295.810626
  0
VERTEX
  8
1
  6
CONTINUOUS
 10
-4632521.422574
 20
-29528047.479840
30
6196431.251259
  0
SEQEND
  8
0
  0
POLYLINE
  8
1
  6
CONTINUOUS
 66
     1
 70
     0
 210
0.213196
 220
-0.676282
 230
-0.705117
 10
0.000000
 20
0.000000
30
4397499.901964
  0
VERTEX
  8
1
  6
CONTINUOUS
 10
-24068393.062972
 20
-18254518.403007
30
4397499.901964
  0
VERTEX
  8
1
  6
CONTINUOUS
 10
-24069293.935834
 20
-18255706.695342
30
4396290.731744
  0
VERTEX
  8
1
  6
CONTINUOUS
 10
-24071612.428434
 20
-18256053.098961
30
4395999.246157
  0
VERTEX
  8
1
  6
CONTINUOUS
 10
-24076124.526550
 20
-18256722.893582
30
4397769.100326
  0
VERTEX
  8
1
  6
CONTINUOUS
 10
-24079588.226786
 20
-18256786.951506
30
4398230.267700
  0
VERTEX
  8
1
  6
CONTINUOUS
 10
-24083985.329337
 20
-18259194.006341
30
4398451.904600
  0
VERTEX
  8
1
  6
CONTINUOUS
 10
-24086662.862971
 20
-18261611.191276
30
4397171.829592
  0
VERTEX
  8
1
  6
CONTINUOUS
 10
-24088380.775021
 20
-18264329.088929
30
4396825.311832
  0
VERTEX
  8
1
  6
CONTINUOUS
 10
-24088894.348533
 20
-18265673.864085
30
4397376.471942
  0
SEQEND
  8
0
  0
POLYLINE
  8
1
  6
CONTINUOUS
 66
     1
 70
     0
 210
0.539340
 220
-0.666126
 230
-0.515158
 10
0.000000
 20
0.000000
30
-7085594.758018
  0
VERTEX
  8
1
  6
CONTINUOUS
 10
-18830265.107149
 20
-22982577.642764
30
-7085594.758018
  0
VERTEX
  8
1
  6
CONTINUOUS
 10
-18832379.867034
 20
-22979974.749545
30
-7088925.331860
  0
VERTEX
  8
1
  6
CONTINUOUS
 10
-18835361.903147
 20
-22977833.204252
30
-7089873.374811
  0
VERTEX
  8
1
  6
CONTINUOUS
 10
-18838332.273439
 20
-22977411.190109
30
-7088685.184792
  0
VERTEX
  8
1
  6
CONTINUOUS
 10
-18841905.614492
 20
-22978399.288715
30
-7087412.555695
  0
VERTEX
  8
1
  6
CONTINUOUS
 10
-18845091.221136
 20
-22980928.805610
30
-7087265.486613
  0
VERTEX
  8
1
  6
CONTINUOUS
 10
-18847526.612596
 20
-22983084.987157
30
-7087741.558114
  0
VERTEX
  8
1
  6
CONTINUOUS
 10
-18849305.241616
 20
-22984928.114101
30
-7088727.535765
  0
VERTEX
  8
1
  6
CONTINUOUS
 10
-18851416.182825
 20
-22989905.137557
30
-7088938.697157
  0
VERTEX
  8
1
  6
CONTINUOUS
 10
-18852225.271861
 20
-22991149.547375
30
-7091047.906958
  0
SEQEND
  8
0
  0
POLYLINE
  8
1
  6
CONTINUOUS
 66
     1
 70
     0
 210
0.363237
 220
-0.744830
 230
-0.559721
 10
0.000000
 20
0.000000
30
-1975315.288725
  0
VERTEX
  8
1
  6
CONTINUOUS
 10
-22402067.006784
 20
-20697879.901265
30
-1975315.288725
  0
VERTEX
  8
1
  6
CONTINUOUS
 10
-22404741.090481
 20
-20699320.477950
30
-1977591.383480
  0
VERTEX
  8
1
  6
CONTINUOUS
 10
-22408522.046628
 20
-20699125.307447
30
-1977356.026874
  0
VERTEX
  8
1
  6
CONTINUOUS
 10
-22412786.747160
 20
-20699001.620409
30
-1976850.780524
  0
VERTEX
  8
1
  6
CONTINUOUS
 10
-22416791.585182
 20
-20700141.216707
30
-1976497.858002
  0
VERTEX
  8
1
  6
CONTINUOUS
 10
-22420527.451957
 20
-20702951.825538
30
-1977151.394234
  0
VERTEX
  8
1
  6
CONTINUOUS
 10
-22422359.473270
 20
-20705106.953564
30
-1978355.589469
  0
VERTEX
  8
1
  6
CONTINUOUS
 10
-22422762.663096
 20
-20705382.781405
30
-1978763.959358
  0
SEQEND
  8
0
  0
POLYLINE
  8
1
  6
CONTINUOUS
 66
     1
 70
     0
 210
0.337784
 220
0.811081
 230
-0.477546
 10
0.000000
 20
0.000000
30
568697.541214
  0
VERTEX
  8
1
  6
CONTINUOUS
 10
24749525.465884
 20
-17953413.589284
30
568697.541214
  0
VERTEX
  8
1
  6
CONTINUOUS
 10
24751721.837478
 20
-17953506.432858
30
570183.738223
  0
VERTEX
  8
1
  6
CONTINUOUS
 10
24754191.684387
 20
-17953620.837996
30
570141.193301
  0
VERTEX
  8
1
  6
CONTINUOUS
 10
24756549.255592
 20
-17956363.575401
30
567716.947770
  0
VERTEX
  8
1
  6
CONTINUOUS
 10
24758327.542423
 20
-17958020.966745
30
566051.985687
  0
VERTEX
  8
1
  6
CONTINUOUS
 10
24762045.296055
 20
-17961919.377639
30
564920.636907
  0
VERTEX
  8
1
  6
CONTINUOUS
 10
24765194.982766
 20
-17964000.123094
30
564637.402582
  0
VERTEX
  8
1
  6
CONTINUOUS
 10
24768938.044327
 20
-17964703.487606
30
564119.376938
  0
VERTEX
  8
1
  6
CONTINUOUS
 10
24771571.662752
 20
-17964706.219900
30
564051.319342
  0
VERTEX
  8
1
  6
CONTINUOUS
 10
24771676.230194
 20
-17964659.352907
30
564137.547035
  0
SEQEND
  8
0
  0
POLYLINE
  8
1
  6
CONTINUOUS
 66
     1
 70
     0
 210
0.154427
 220
-0.292959
 230
-0.943572
 10
0.000000
 20
0.000000
30
10529490.695600
  0
VERTEX
  8
1
  6
CONTINUOUS
 10
-22014535.697305
 20
-18467404.354327
30
10529490.695600
  0
VERTEX
  8
1
  6
CONTINUOUS
 10
-22016332.399428
 20
-18468929.781756
30
10529050.905400
  0
VERTEX
  8
1
  6
CONTINUOUS
 10
-22019830.461480
 20
-18469404.847975
30
10528894.767831
  0
VERTEX
  8
1
  6
CONTINUOUS
 10
-22023665.604284
 20
-18469456.804916
30
10528908.432397
  0
VERTEX
  8
1
  6
CONTINUOUS
 10
-22027932.981819
 20
-18470381.501616
30
10529878.967685
  0
VERTEX
  8
1
  6
CONTINUOUS
 10
-22030830.002521
 20
-18471940.186441
30
10529321.312767
  0
VERTEX
  8
1
  6
CONTINUOUS
 10
-22033369.515758
 20
-18474647.427107
30
10528700.212168
  0
VERTEX
  8
1
  6
CONTINUOUS
 10
-22035481.601037
 20
-18476453.976995
30
10528788.099017
  0
SEQEND
  8
0
  0
POLYLINE
  8
1
  6
CONTINUOUS
 66
     1
 70
     0
 210
0.022424
 220
-0.960903
 230
-0.275977
 10
0.000000
 20
0.000000
30
1863657.617682
  0
VERTEX
  8
1
  6
CONTINUOUS
 10
-25978771.251271
 20
-16169362.920007
30
1863657.617682
  0
VERTEX
  8
1
  6
CONTINUOUS
 10
-25989053.271642
 20
-16169191.141471
30
1862949.252558
  0
VERTEX
  8
1
  6
CONTINUOUS
 10
-25989075.902762
 20
-16169335.165696
30
1862447.649791
  0
VERTEX
  8
1
  6
CONTINUOUS
 10
-25991732.346324
 20
-16155828.606319
30
1863899.657786
  0
VERTEX
  8
1
  6
CONTINUOUS
 10
-26011079.356243
 20
-16156086.654431
30
1863146.238291
  0
VERTEX
  8
1
  6
CONTINUOUS
 10
-26015379.908115
 20
-16166796.903111
30
1863121.209353
  0
VERTEX
  8
1
  6
CONTINUOUS
 10
-26025219.378751
 20
-16166577.608210
30
1862977.640986
  0
SEQEND
  8
0
  0
POLYLINE
  8
1
  6
CONTINUOUS
 66
     1
 70
     0
 210
0.083189
 220
-0.841474
 230
-0.533855
 10
0.000000
 20
0.000000
30
4660078.074257
  0
VERTEX
  8
1
  6
CONTINUOUS
 10
-25752134.049160
 20
-16031073.973564
30
4660078.074257
  0
VERTEX
  8
1
  6
CONTINUOUS
 10
-25755925.209669
 20
-16030374.120407
30
4656383.023685
  0
VERTEX
  8
1
  6
CONTINUOUS
 10
-25760352.972053
 20
-16030889.216196
30
4655661.006005
  0
VERTEX
  8
1
  6
CONTINUOUS
 10
-25766140.247635
 20
-16030804.219897
30
4659473.223125
  0
VERTEX
  8
1
  6
CONTINUOUS
 10
-25772059.777330
 20
-16032361.873279
30
4660289.710013
  0
VERTEX
  8
1
  6
CONTINUOUS
 10
-25776616.749630
 20
-16035369.304876
30
4659372.771247
  0
VERTEX
  8
1
  6
CONTINUOUS
 10
-25781554.610293
 20
-16040029.409932
30
4657507.894834
  0
VERTEX
  8
1
  6
CONTINUOUS
 10
-25778088.498602
 20
-16075749.026847
30
4663000.858840
  0
VERTEX
  8
1
  6
CONTINUOUS
 10
-25790896.521518
 20
-16081797.146544
30
4660926.614682
  0
VERTEX
  8
1
  6
CONTINUOUS
 10
-25786114.286964
 20
-16105350.249487
30
4658014.136461
  0
VERTEX
  8
1
  6
CONTINUOUS
 10
-25786087.518057
 20
-16105952.641568
30
4657885.509108
  0
VERTEX
  8
1
  6
CONTINUOUS
 10
-25783304.882911
 20
-16140294.278151
30
4658881.347185
  0
SEQEND
  8
0
  0
POLYLINE
  8
1
  6
CONTINUOUS
 66
     1
 70
     0
 210
-0.037485
 220
-0.871375
 230
-0.489183
 10
0.000000
 20
0.000000
30
7017137.214071
  0
VERTEX
  8
1
  6
CONTINUOUS
 10
-26168269.455048
 20
-14550405.531205
30
7017137.214071
  0
VERTEX
  8
1
  6
CONTINUOUS
 10
-26172444.136481
 20
-14551069.752982
30
7015932.508424
  0
VERTEX
  8
1
  6
CONTINUOUS
 10
-26178240.190389
 20
-14550756.955917
30
7018435.488627
  0
VERTEX
  8
1
  6
CONTINUOUS
 10
-26182346.007321
 20
-14550419.268985
30
7020102.194020
  0
VERTEX
  8
1
  6
CONTINUOUS
 10
-26187241.274719
 20
-14551907.042041
30
7019743.008419
  0
VERTEX
  8
1
  6
CONTINUOUS
 10
-26190791.700640
 20
-14554679.286095
30
7018076.763585
  0
VERTEX
  8
1
  6
CONTINUOUS
 10
-26193856.526303
 20
-14559017.955941
30
7017098.385962
  0
VERTEX
  8
1
  6
CONTINUOUS
 10
-26192307.994395
 20
-14584994.663066
30
7019313.930636
  0
SEQEND
  8
0
  0
POLYLINE
  8
1
  6
CONTINUOUS
 66
     1
 70
     0
 210
-0.002121
 220
-0.008955
 230
-0.999958
 10
0.000000
 20
0.000000
30
16540872.565103
  0
VERTEX
  8
1
  6
CONTINUOUS
 10
25969019.608787
 20
2574009.250324
30
16540872.565103
  0
VERTEX
  8
1
  6
CONTINUOUS
 10
25988201.129269
 20
2575202.898185
30
16540872.565103
  0
VERTEX
  8
1
  6
CONTINUOUS
 10
26006043.608216
 20
2578424.427357
30
16540872.565103
  0
SEQEND
  8
0
  0
POLYLINE
  8
1
  6
CONTINUOUS
 66
     1
 70
     0
 210
1.000000
 220
0.000000
 230
0.000000
 10
0.000000
 20
0.000000
30
-26047299.700000
  0
VERTEX
  8
1
  6
CONTINUOUS
 10
2435934.000000
 20
-16509194.000000
30
-26047299.700000
  0
VERTEX
  8
1
  6
CONTINUOUS
 10
2430186.700000
 20
-16507703.700000
30
-26041098.200000
  0
SEQEND
  8
0
  0
POLYLINE
  8
1
  6
CONTINUOUS
 66
     1
 70
     0
 210
-0.532083
 220
0.013628
 230
0.846582
 10
0.000000
 20
0.000000
30
4619.534842
  0
VERTEX
  8
1
  6
CONTINUOUS
 10
-1735573.219026
 20
-30902310.623234
30
4619.534842
  0
VERTEX
  8
1
  6
CONTINUOUS
 10
-1722493.059937
 20
-30902716.346654
30
4874.618483
  0
VERTEX
  8
1
  6
CONTINUOUS
 10
-1716745.571442
 20
-30901469.971328
30
4091.005952
  0
VERTEX
  8
1
  6
CONTINUOUS
 10
-1716208.135505
 20
-30896749.600886
30
5146.127329
  0
VERTEX
  8
1
  6
CONTINUOUS
 10
-1717862.841857
 20
-30895401.783481
30
4665.623698
  0
SEQEND
  8
0
  0
POLYLINE
  8
1
  6
CONTINUOUS
 66
     1
 70
     0
 210
0.076072
 220
0.383727
 230
-0.920308
 10
0.000000
 20
0.000000
30
14070014.355845
  0
VERTEX
  8
1
  6
CONTINUOUS
 10
26073170.316687
 20
-8927565.331425
30
14070014.355845
  0
VERTEX
  8
1
  6
CONTINUOUS
 10
26073874.087611
 20
-8933633.922835
30
14070014.355845
  0
VERTEX
  8
1
  6
CONTINUOUS
 10
26079041.765148
 20
-8933602.480680
30
14070014.355845
  0
SEQEND
  8
0
  0
POLYLINE
  8
1
  6
CONTINUOUS
 66
     1
 70
     0
 210
-0.992227
 220
0.101845
 230
-0.071505
 10
0.000000
 20
0.000000
30
27321168.415060
  0
VERTEX
  8
1
  6
CONTINUOUS
 10
315080.501675
 20
-14534427.077916
30
27321168.415060
  0
VERTEX
  8
1
  6
CONTINUOUS
 10
292641.386888
 20
-14534362.704310
30
27322492.917786
  0
VERTEX
  8
1
  6
CONTINUOUS
 10
292637.337241
 20
-14534303.689134
30
27323316.132253
  0
VERTEX
  8
1
  6
CONTINUOUS
 10
285995.935800
 20
-14533354.888479
30
27323662.567808
  0
VERTEX
  8
1
  6
CONTINUOUS
 10
285892.665747
 20
-14533555.665953
30
27322123.329555
  0
VERTEX
  8
1
  6
CONTINUOUS
 10
272484.807593
 20
-14535441.566567
30
27323694.220512
  0
SEQEND
  8
0
  0
LINE
  8
1
  6
CONTINUOUS
 10
-26106853.500000
 20
2363831.000000
 30
-16437605.800000
 11
-26106103.900000
 21
2353308.700000
 31
-16423798.000000
  0
POLYLINE
  8
1
  6
CONTINUOUS
 66
     1
 70
     0
 210
-0.358458
 220
0.115940
 230
-0.926318
 10
0.000000
 20
0.000000
30
24903236.385693
  0
VERTEX
  8
1
  6
CONTINUOUS
 10
5609753.175559
 20
17504791.361021
30
24903236.385693
  0
VERTEX
  8
1
  6
CONTINUOUS
 10
5581597.165484
 20
17509962.227826
30
24905326.897417
  0
VERTEX
  8
1
  6
CONTINUOUS
 10
5565345.081560
 20
17513494.171136
30
24907195.940664
  0
VERTEX
  8
1
  6
CONTINUOUS
 10
5558419.278233
 20
17514588.547654
30
24907630.129293
  0
VERTEX
  8
1
  6
CONTINUOUS
 10
5552013.503409
 20
17513487.195633
30
24907182.200292
  0
VERTEX
  8
1
  6
CONTINUOUS
 10
5553062.573915
 20
17517033.172886
30
24908624.378650
  0
VERTEX
  8
1
  6
CONTINUOUS
 10
5550080.181591
 20
17516933.982367
30
24908584.037043
  0
VERTEX
  8
1
  6
CONTINUOUS
 10
5546954.427416
 20
17514891.897820
30
24907645.442135
  0
VERTEX
  8
1
  6
CONTINUOUS
 10
5544733.862225
 20
17506741.848413
30
24901865.182726
  0
VERTEX
  8
1
  6
CONTINUOUS
 10
5542813.822436
 20
17498194.751208
30
24900238.155458
  0
VERTEX
  8
1
  6
CONTINUOUS
 10
5542221.443700
 20
17489955.729854
30
24903159.202154
  0
VERTEX
  8
1
  6
CONTINUOUS
 10
5542982.142454
 20
17487868.796407
30
24908690.524166
  0
VERTEX
  8
1
  6
CONTINUOUS
 10
5545604.863278
 20
17486911.829065
30
24908896.145434
  0
VERTEX
  8
1
  6
CONTINUOUS
 10
5546138.936319
 20
17489152.541748
30
24909796.558489
  0
VERTEX
  8
1
  6
CONTINUOUS
 10
5553277.667060
 20
17486041.874426
30
24907569.012305
  0
VERTEX
  8
1
  6
CONTINUOUS
 10
5557712.245739
 20
17485009.036840
30
24907127.357846
  0
VERTEX
  8
1
  6
CONTINUOUS
 10
5581408.222496
 20
17479842.591851
30
24905026.121820
  0
VERTEX
  8
1
  6
CONTINUOUS
 10
5602042.143838
 20
17474764.188731
30
24902960.693153
  0
SEQEND
  8
0
  0
POLYLINE
  8
1
  6
CONTINUOUS
 66
     1
 70
     0
 210
-0.947788
 220
0.061566
 230
0.312902
 10
0.000000
 20
0.000000
30
19742104.693187
  0
VERTEX
  8
1
  6
CONTINUOUS
 10
-712684.076153
 20
-23826447.719303
30
19742104.693187
  0
VERTEX
  8
1
  6
CONTINUOUS
 10
-770601.560462
 20
-23822218.553116
30
19742104.693187
  0
VERTEX
  8
1
  6
CONTINUOUS
 10
-803585.122417
 20
-23825522.141730
30
19742104.693187
  0
SEQEND
  8
0
  0
POLYLINE
  8
1
  6
CONTINUOUS
 66
     1
 70
     0
 210
0.003926
 220
-0.005924
 230
0.999975
 10
0.000000
 20
0.000000
30
-16565404.730893
  0
VERTEX
  8
1
  6
CONTINUOUS
 10
-26036833.982565
 20
2402710.203675
30
-16565404.730893
  0
VERTEX
  8
1
  6
CONTINUOUS
 10
-26013919.836543
 20
2401093.181689
30
-16565285.480181
  0
VERTEX
  8
1
  6
CONTINUOUS
 10
-25976059.167647
 20
2398591.965390
30
-16565112.005085
  0
VERTEX
  8
1
  6
CONTINUOUS
 10
-25975322.273327
 20
2413179.826592
30
-16565195.524649
  0
VERTEX
  8
1
  6
CONTINUOUS
 10
-26001499.232284
 20
2415023.526172
30
-16565319.229189
  0
VERTEX
  8
1
  6
CONTINUOUS
 10
-26035586.270886
 20
2417348.654155
30
-16565186.336842
  0
VERTEX
  8
1
  6
CONTINUOUS
 10
-26036695.229480
 20
2404352.357670
30
-16565096.605568
  0
SEQEND
  8
0
  0
POLYLINE
  8
1
  6
CONTINUOUS
 66
     1
 70
     0
 210
0.004241
 220
-0.005663
 230
0.999975
 10
0.000000
 20
0.000000
30
-16572955.036716
  0
VERTEX
  8
1
  6
CONTINUOUS
 10
-26030037.150684
 20
2406867.047140
30
-16572955.036716
  0
VERTEX
  8
1
  6
CONTINUOUS
 10
-26008714.620028
 20
2405362.386989
30
-16572837.788692
  0
VERTEX
  8
1
  6
CONTINUOUS
 10
-25970854.002889
 20
2402861.192994
30
-16572653.061184
  0
VERTEX
  8
1
  6
CONTINUOUS
 10
-25970117.109515
 20
2417449.076772
30
-16572732.548611
  0
VERTEX
  8
1
  6
CONTINUOUS
 10
-25996294.031717
 20
2419292.761908
30
-16572864.003305
  0
VERTEX
  8
1
  6
CONTINUOUS
 10
-26030381.114749
 20
2421617.794495
30
-16572741.222776
  0
VERTEX
  8
1
  6
CONTINUOUS
 10
-26031630.085366
 20
2406981.208499
30
-16572644.330725
  0
SEQEND
  8
0
  0
POLYLINE
  8
1
  6
CONTINUOUS
 66
     1
 70
     0
 210
-0.005944
 220
-0.025279
 230
-0.999663
 10
0.000000
 20
0.000000
30
16537850.949393
  0
VERTEX
  8
1
  6
CONTINUOUS
 10
-25978724.561594
 20
3096499.682422
30
16537850.949393
  0
VERTEX
  8
1
  6
CONTINUOUS
 10
-25981381.919984
 20
3081730.734878
30
16537433.785488
  0
VERTEX
  8
1
  6
CONTINUOUS
 10
-25956699.337482
 20
3078198.256026
30
16538203.812990
  0
VERTEX
  8
1
  6
CONTINUOUS
 10
-25929491.680789
 20
3073284.971933
30
16537474.977981
  0
VERTEX
  8
1
  6
CONTINUOUS
 10
-25927116.804330
 20
3088069.670361
30
16537810.323316
  0
SEQEND
  8
0
  0
POLYLINE
  8
1
  6
CONTINUOUS
 66
     1
 70
     0
 210
-0.290421
 220
-0.130993
 230
0.947891
 10
0.000000
 20
0.000000
30
-8565680.982757
  0
VERTEX
  8
1
  6
CONTINUOUS
 10
-12707674.805886
 20
-26105830.323771
30
-8565680.982757
  0
VERTEX
  8
1
  6
CONTINUOUS
 10
-12733516.752415
 20
-26097319.160927
30
-8568527.113786
  0
VERTEX
  8
1
  6
CONTINUOUS
 10
-12744293.714922
 20
-26094199.523835
30
-8568952.166372
  0
VERTEX
  8
1
  6
CONTINUOUS
 10
-12759842.469440
 20
-26090398.374351
30
-8573315.570903
  0
VERTEX
  8
1
  6
CONTINUOUS
 10
-12761176.919345
 20
-26088652.053353
30
-8574113.838705
  0
VERTEX
  8
1
  6
CONTINUOUS
 10
-12763978.932385
 20
-26092069.148512
30
-8565589.150521
  0
VERTEX
  8
1
  6
CONTINUOUS
 10
-12761034.130250
 20
-26091543.239356
30
-8571039.201571
  0
VERTEX
  8
1
  6
CONTINUOUS
 10
-12756829.755704
 20
-26096068.520792
30
-8563769.337942
  0
VERTEX
  8
1
  6
CONTINUOUS
 10
-12757712.471545
 20
-26095935.347403
30
-8563824.648633
  0
VERTEX
  8
1
  6
CONTINUOUS
 10
-12763665.999532
 20
-26099608.669598
30
-8561786.960922
  0
VERTEX
  8
1
  6
CONTINUOUS
 10
-12767808.901187
 20
-26100334.335970
30
-8562726.632299
  0
VERTEX
  8
1
  6
CONTINUOUS
 10
-12770745.514768
 20
-26109712.139451
30
-8564890.142282
  0
VERTEX
  8
1
  6
CONTINUOUS
 10
-12770587.486121
 20
-26114634.593767
30
-8574247.051241
  0
VERTEX
  8
1
  6
CONTINUOUS
 10
-12769215.174575
 20
-26114379.033885
30
-8574332.947555
  0
VERTEX
  8
1
  6
CONTINUOUS
 10
-12763082.469316
 20
-26116953.991089
30
-8570064.764714
  0
VERTEX
  8
1
  6
CONTINUOUS
 10
-12749950.028282
 20
-26123002.344510
30
-8567757.029980
  0
VERTEX
  8
1
  6
CONTINUOUS
 10
-12723542.075204
 20
-26135861.836165
30
-8565739.412830
  0
SEQEND
  8
0
  0
POLYLINE
  8
1
  6
CONTINUOUS
 66
     1
 70
     0
 210
0.053351
 220
-0.059579
 230
-0.996797
 10
0.000000
 20
0.000000
30
14862897.687057
  0
VERTEX
  8
1
  6
CONTINUOUS
 10
-17202942.847674
 20
-20022346.021269
30
14862897.687057
  0
VERTEX
  8
1
  6
CONTINUOUS
 10
-17191943.388641
 20
-20034473.224651
30
14861809.730664
  0
VERTEX
  8
1
  6
CONTINUOUS
 10
-17164692.740811
 20
-20010650.217920
30
14862284.092013
  0
VERTEX
  8
1
  6
CONTINUOUS
 10
-17152196.825392
 20
-20000095.113514
30
14863130.947716
  0
VERTEX
  8
1
  6
CONTINUOUS
 10
-17162831.416214
 20
-19988921.198065
30
14861605.594283
  0
SEQEND
  8
0
  0
LINE
  8
1
  6
CONTINUOUS
 10
-25341614.800000
 20
2506662.400000
 30
-16412002.400000
 11
-25342102.900000
 21
2506643.000000
 31
-16411993.700000
  0
POLYLINE
  8
1
  6
CONTINUOUS
 66
     1
 70
     0
 210
0.031051
 220
-0.107367
 230
-0.993734
 10
0.000000
 20
0.000000
30
15253166.690759
  0
VERTEX
  8
1
  6
CONTINUOUS
 10
-23647641.913906
 20
-11223393.321644
30
15253166.690759
  0
VERTEX
  8
1
  6
CONTINUOUS
 10
-23613851.470418
 20
-11215184.816867
30
15254714.931604
  0
VERTEX
  8
1
  6
CONTINUOUS
 10
-23588467.793527
 20
-11208120.204659
30
15253594.300983
  0
VERTEX
  8
1
  6
CONTINUOUS
 10
-23592447.498275
 20
-11192964.726459
30
15254038.768691
  0
VERTEX
  8
1
  6
CONTINUOUS
 10
-23651911.373791
 20
-11208749.895117
30
15254017.373133
  0
VERTEX
  8
1
  6
CONTINUOUS
 10
-23648116.189244
 20
-11223561.492200
30
15253615.406291
  0
SEQEND
  8
0
  0
POLYLINE
  8
1
  6
CONTINUOUS
 66
     1
 70
     0
 210
-0.036809
 220
0.163370
 230
0.985878
 10
0.000000
 20
0.000000
30
-14927245.569215
  0
VERTEX
  8
1
  6
CONTINUOUS
 10
24715464.958891
 20
-10696790.984876
30
-14927245.569215
  0
VERTEX
  8
1
  6
CONTINUOUS
 10
24683854.704016
 20
-10690697.886252
30
-14928270.425326
  0
VERTEX
  8
1
  6
CONTINUOUS
 10
24681992.452187
 20
-10690437.335630
30
-14928314.683550
  0
VERTEX
  8
1
  6
CONTINUOUS
 10
24648651.830698
 20
-10682832.407140
30
-14927178.196235
  0
VERTEX
  8
1
  6
CONTINUOUS
 10
24649031.465785
 20
-10681804.578000
30
-14927352.787615
  0
VERTEX
  8
1
  6
CONTINUOUS
 10
24615679.129795
 20
-10674881.203388
30
-14927848.006649
  0
VERTEX
  8
1
  6
CONTINUOUS
 10
24581243.887526
 20
-10669035.789369
30
-14928901.894147
  0
VERTEX
  8
1
  6
CONTINUOUS
 10
24580758.392466
 20
-10668527.248521
30
-14928988.277034
  0
VERTEX
  8
1
  6
CONTINUOUS
 10
24547318.227830
 20
-10662943.837703
30
-14929936.698674
  0
VERTEX
  8
1
  6
CONTINUOUS
 10
24547046.498295
 20
-10662616.784269
30
-14929992.253346
  0
VERTEX
  8
1
  6
CONTINUOUS
 10
24514351.776349
 20
-10656191.103229
30
-14930524.955274
  0
VERTEX
  8
1
  6
CONTINUOUS
 10
24513959.808036
 20
-10655597.718062
30
-14930656.281336
  0
VERTEX
  8
1
  6
CONTINUOUS
 10
24484118.605967
 20
-10647904.993120
30
-14930835.172720
  0
VERTEX
  8
1
  6
CONTINUOUS
 10
24454739.697341
 20
-10640265.684331
30
-14931045.665017
  0
VERTEX
  8
1
  6
CONTINUOUS
 10
24456932.631804
 20
-10632511.539168
30
-14927109.833877
  0
VERTEX
  8
1
  6
CONTINUOUS
 10
24428428.800099
 20
-10627828.627337
30
-14929358.211144
  0
VERTEX
  8
1
  6
CONTINUOUS
 10
24428134.079988
 20
-10629747.199098
30
-14929022.171233
  0
VERTEX
  8
1
  6
CONTINUOUS
 10
24393847.557853
 20
-10621557.689022
30
-14923687.088350
  0
VERTEX
  8
1
  6
CONTINUOUS
 10
24354293.174980
 20
-10613274.324842
30
-14928782.320121
  0
VERTEX
  8
1
  6
CONTINUOUS
 10
24319959.003713
 20
-10608195.288108
30
-14921791.051932
  0
VERTEX
  8
1
  6
CONTINUOUS
 10
24320738.400006
 20
-10604936.948649
30
-14922344.527175
  0
VERTEX
  8
1
  6
CONTINUOUS
 10
24317675.899192
 20
-10604571.193060
30
-14923951.066183
  0
VERTEX
  8
1
  6
CONTINUOUS
 10
24317185.024054
 20
-10606755.075865
30
-14924900.955810
  0
VERTEX
  8
1
  6
CONTINUOUS
 10
24283779.336448
 20
-10601030.881747
30
-14925893.577980
  0
VERTEX
  8
1
  6
CONTINUOUS
 10
24250648.023621
 20
-10594076.607157
30
-14928416.101368
  0
VERTEX
  8
1
  6
CONTINUOUS
 10
24215289.932109
 20
-10591642.500916
30
-14928788.894484
  0
VERTEX
  8
1
  6
CONTINUOUS
 10
24183659.734263
 20
-10591786.444149
30
-14928764.443681
  0
VERTEX
  8
1
  6
CONTINUOUS
 10
24182769.716844
 20
-10592238.356113
30
-14928687.680015
  0
SEQEND
  8
0
  0
POLYLINE
  8
1
  6
CONTINUOUS
 66
     1
 70
     0
 210
-0.019286
 220
0.702810
 230
0.711116
 10
0.000000
 20
0.000000
30
-9525321.303571
  0
VERTEX
  8
1
  6
CONTINUOUS
 10
25214282.684302
 20
-13547926.486498
30
-9525321.303571
  0
VERTEX
  8
1
  6
CONTINUOUS
 10
25214938.316780
 20
-13551043.096153
30
-9523676.695258
  0
VERTEX
  8
1
  6
CONTINUOUS
 10
25211961.057295
 20
-13580123.906865
30
-9525675.004679
  0
VERTEX
  8
1
  6
CONTINUOUS
 10
25211902.345446
 20
-13603785.774429
30
-9523776.370609
  0
VERTEX
  8
1
  6
CONTINUOUS
 10
25210170.998175
 20
-13630368.147458
30
-9523737.302318
  0
VERTEX
  8
1
  6
CONTINUOUS
 10
25206902.676382
 20
-13659673.976425
30
-9527090.798320
  0
VERTEX
  8
1
  6
CONTINUOUS
 10
25206105.896943
 20
-13659759.740863
30
-9526991.941418
  0
VERTEX
  8
1
  6
CONTINUOUS
 10
25207589.489696
 20
-13688079.297959
30
-9524418.310163
  0
SEQEND
  8
0
  0
POLYLINE
  8
1
  6
CONTINUOUS
 66
     1
 70
     0
 210
-0.127720
 220
0.014048
 230
0.991711
 10
0.000000
 20
0.000000
30
-13007958.934111
  0
VERTEX
  8
1
  6
CONTINUOUS
 10
293721.799105
 20
-27356245.635765
30
-13007958.934111
  0
VERTEX
  8
1
  6
CONTINUOUS
 10
348879.235250
 20
-27349671.569860
30
-13008287.665443
  0
VERTEX
  8
1
  6
CONTINUOUS
 10
401480.057170
 20
-27343643.207666
30
-13010250.524674
  0
VERTEX
  8
1
  6
CONTINUOUS
 10
418182.382073
 20
-27341826.832502
30
-13010233.369803
  0
VERTEX
  8
1
  6
CONTINUOUS
 10
432061.886604
 20
-27339916.554118
30
-13008238.486666
  0
VERTEX
  8
1
  6
CONTINUOUS
 10
429059.055937
 20
-27311309.076958
30
-13008864.268953
  0
VERTEX
  8
1
  6
CONTINUOUS
 10
427981.809623
 20
-27286627.224138
30
-13009903.270280
  0
SEQEND
  8
0
  0
LINE
  8
1
  6
CONTINUOUS
 10
-25283378.200000
 20
2350437.100000
 30
-16408138.500000
 11
-25281425.200000
 21
2344819.700000
 31
-16396706.600000
  0
LINE
  8
1
  6
CONTINUOUS
 10
-25281937.300000
 20
2370058.000000
 30
-16410663.300000
 11
-25281954.600000
 21
2370558.600000
 31
-16410668.700000
  0
POLYLINE
  8
1
  6
CONTINUOUS
 66
     1
 70
     0
 210
0.046751
 220
-0.078459
 230
-0.995821
 10
0.000000
 20
0.000000
30
14974302.818490
  0
VERTEX
  8
1
  6
CONTINUOUS
 10
-20505421.094962
 20
-16413587.638039
30
14974302.818490
  0
VERTEX
  8
1
  6
CONTINUOUS
 10
-20534050.019482
 20
-16427238.297929
30
14973050.846629
  0
VERTEX
  8
1
  6
CONTINUOUS
 10
-20553634.548643
 20
-16437755.443212
30
14974238.862165
  0
VERTEX
  8
1
  6
CONTINUOUS
 10
-20549965.765284
 20
-16444050.026027
30
14973591.159558
  0
VERTEX
  8
1
  6
CONTINUOUS
 10
-20502420.032852
 20
-16419015.130026
30
14973734.641219
  0
VERTEX
  8
1
  6
CONTINUOUS
 10
-20505179.708995
 20
-16414012.674422
30
14974131.583481
  0
SEQEND
  8
0
  0
POLYLINE
  8
1
  6
CONTINUOUS
 66
     1
 70
     0
 210
0.170399
 220
-0.359858
 230
0.917315
 10
0.000000
 20
0.000000
30
-19776325.218421
  0
VERTEX
  8
1
  6
CONTINUOUS
 10
-21823823.662706
 20
5358774.965185
30
-19776325.218421
  0
VERTEX
  8
1
  6
CONTINUOUS
 10
-22003621.900785
 20
5407481.447730
30
-19770046.586124
  0
VERTEX
  8
1
  6
CONTINUOUS
 10
-22004730.902016
 20
5405011.229140
30
-19776279.834610
  0
VERTEX
  8
1
  6
CONTINUOUS
 10
-22009865.737377
 20
5396430.089285
30
-19772555.167079
  0
VERTEX
  8
1
  6
CONTINUOUS
 10
-22012393.875315
 20
5390688.626706
30
-19770063.069338
  0
SEQEND
  8
0
  0
POLYLINE
  8
1
  6
CONTINUOUS
 66
     1
 70
     0
 210
-0.144053
 220
-0.017435
 230
-0.989416
 10
0.000000
 20
0.000000
30
19436354.199997
  0
VERTEX
  8
1
  6
CONTINUOUS
 10
-5199428.842485
 20
22335510.391352
30
19436354.199997
  0
VERTEX
  8
1
  6
CONTINUOUS
 10
-5204481.568400
 20
22335238.862521
30
19436354.199997
  0
VERTEX
  8
1
  6
CONTINUOUS
 10
-5220520.512039
 20
22165100.550877
30
19436354.199997
  0
SEQEND
  8
0
  0
LINE
  8
1
  6
CONTINUOUS
 10
-25272651.300000
 20
2139274.000000
 30
-16180991.500000
 11
-25263048.300000
 21
2138897.500000
 31
-16181292.000000
  0
POLYLINE
  8
1
  6
CONTINUOUS
 66
     1
 70
     0
 210
0.302496
 220
-0.934952
 230
0.185370
 10
0.000000
 20
0.000000
30
-12730234.774657
  0
VERTEX
  8
1
  6
CONTINUOUS
 10
-23406005.646107
 20
-14132641.708368
30
-12730234.774657
  0
VERTEX
  8
1
  6
CONTINUOUS
 10
-23402289.331633
 20
-14137708.093687
30
-12730438.264867
  0
VERTEX
  8
1
  6
CONTINUOUS
 10
-23396428.296072
 20
-14145922.649979
30
-12729959.822646
  0
VERTEX
  8
1
  6
CONTINUOUS
 10
-23390035.442306
 20
-14145443.901607
30
-12730390.589564
  0
VERTEX
  8
1
  6
CONTINUOUS
 10
-23385676.363266
 20
-14143540.537930
30
-12730250.740443
  0
SEQEND
  8
0
  0
POLYLINE
  8
1
  6
CONTINUOUS
 66
     1
 70
     0
 210
0.041392
 220
-0.998737
 230
-0.028474
 10
0.000000
 20
0.000000
30
-2825134.740173
  0
VERTEX
  8
1
  6
CONTINUOUS
 10
-25051500.237581
 20
-16129501.192930
30
-2825134.740173
  0
VERTEX
  8
1
  6
CONTINUOUS
 10
-25119827.166657
 20
-16256094.592787
30
-2823651.621227
  0
VERTEX
  8
1
  6
CONTINUOUS
 10
-25140337.965628
 20
-16307324.196110
30
-2825134.740173
  0
VERTEX
  8
1
  6
CONTINUOUS
 10
-25170466.043955
 20
-16365039.967656
30
-2823651.621227
  0
SEQEND
  8
0
  0
POLYLINE
  8
1
  6
CONTINUOUS
 66
     1
 70
     0
 210
1.000000
 220
0.000000
 230
0.000000
 10
0.000000
 20
0.000000
30
-25293103.600000
  0
VERTEX
  8
1
  6
CONTINUOUS
 10
2231789.300000
 20
-16278416.400000
30
-25293103.600000
  0
VERTEX
  8
1
  6
CONTINUOUS
 10
2231789.300000
 20
-16278416.400000
30
-25293103.600000
  0
VERTEX
  8
1
  6
CONTINUOUS
 10
2243404.400000
 20
-16289092.200000
30
-25285042.000000
  0
SEQEND
  8
0
  0
POLYLINE
  8
1
  6
CONTINUOUS
 66
     1
 70
     0
 210
-0.964747
 220
0.041997
 230
0.259806
 10
0.000000
 20
0.000000
30
20224746.199641
  0
VERTEX
  8
1
  6
CONTINUOUS
 10
-858098.146667
 20
-21956275.075276
30
20224746.199641
  0
VERTEX
  8
1
  6
CONTINUOUS
 10
-877151.326289
 20
-21961983.981769
30
20227535.464645
  0
VERTEX
  8
1
  6
CONTINUOUS
 10
-884160.585247
 20
-21964762.300225
30
20226989.724094
  0
VERTEX
  8
1
  6
CONTINUOUS
 10
-890708.189616
 20
-21966172.118520
30
20226214.939338
  0
VERTEX
  8
1
  6
CONTINUOUS
 10
-899334.849768
 20
-21969617.486714
30
20225680.914533
  0
VERTEX
  8
1
  6
CONTINUOUS
 10
-908082.010671
 20
-21974300.219696
30
20225119.079512
  0
VERTEX
  8
1
  6
CONTINUOUS
 10
-916074.589809
 20
-21980727.544033
30
20224487.129002
  0
VERTEX
  8
1
  6
CONTINUOUS
 10
-921533.379769
 20
-21985148.386813
30
20225573.458499
  0
VERTEX
  8
1
  6
CONTINUOUS
 10
-925343.547970
 20
-21990672.320030
30
20227135.955983
  0
VERTEX
  8
1
  6
CONTINUOUS
 10
-927401.954132
 20
-21996697.322692
30
20227216.051271
  0
SEQEND
  8
0
  0
POLYLINE
  8
1
  6
CONTINUOUS
 66
     1
 70
     0
 210
1.000000
 220
0.000000
 230
0.000000
 10
0.000000
 20
0.000000
30
-25437604.600000
  0
VERTEX
  8
1
  6
CONTINUOUS
 10
1935284.900000
 20
-16026900.700000
30
-25437604.600000
  0
VERTEX
  8
1
  6
CONTINUOUS
 10
1935299.200000
 20
-16026901.000000
30
-25437604.500000
  0
SEQEND
  8
0
  0
POLYLINE
  8
1
  6
CONTINUOUS
 66
     1
 70
     0
 210
0.047145
 220
-0.000149
 230
0.998888
 10
0.000000
 20
0.000000
30
-17208831.751421
  0
VERTEX
  8
1
  6
CONTINUOUS
 10
1950750.757224
 20
24667336.324044
30
-17208831.751421
  0
VERTEX
  8
1
  6
CONTINUOUS
 10
1862446.816044
 20
24666988.736052
30
-17208815.346219
  0
VERTEX
  8
1
  6
CONTINUOUS
 10
1862427.070570
 20
24659687.545326
30
-17208831.751421
  0
VERTEX
  8
1
  6
CONTINUOUS
 10
1861864.562632
 20
24659689.943049
30
-17208815.346219
  0
SEQEND
  8
0
  0
POLYLINE
  8
1
  6
CONTINUOUS
 66
     1
 70
     0
 210
1.000000
 220
0.000000
 230
0.000000
 10
0.000000
 20
0.000000
30
-25645576.500000
  0
VERTEX
  8
1
  6
CONTINUOUS
 10
1838141.300000
 20
-16056961.600000
30
-25645576.500000
  0
VERTEX
  8
1
  6
CONTINUOUS
 10
1778307.700000
 20
-16059683.100000
30
-25646244.200000
  0
SEQEND
  8
0
  0
POLYLINE
  8
1
  6
CONTINUOUS
 66
     1
 70
     0
 210
1.000000
 220
0.000000
 230
0.000000
 10
0.000000
 20
0.000000
30
-25638500.900000
  0
VERTEX
  8
1
  6
CONTINUOUS
 10
1854499.200000
 20
-16050230.200000
30
-25638500.900000
  0
VERTEX
  8
1
  6
CONTINUOUS
 10
1778203.300000
 20
-16050240.000000
30
-25638475.600000
  0
SEQEND
  8
0
  0
POLYLINE
  8
1
  6
CONTINUOUS
 66
     1
 70
     0
 210
1.000000
 220
0.000000
 230
0.000000
 10
0.000000
 20
0.000000
30
-25679410.500000
  0
VERTEX
  8
1
  6
CONTINUOUS
 10
1837638.100000
 20
-16058704.500000
30
-25679410.500000
  0
VERTEX
  8
1
  6
CONTINUOUS
 10
1778670.900000
 20
-16060552.300000
30
-25679771.500000
  0
SEQEND
  8
0
  0
POLYLINE
  8
1
  6
CONTINUOUS
 66
     1
 70
     0
 210
1.000000
 220
0.000000
 230
0.000000
 10
0.000000
 20
0.000000
30
-25679785.400000
  0
VERTEX
  8
1
  6
CONTINUOUS
 10
1752042.800000
 20
-16060056.800000
30
-25679785.400000
  0
VERTEX
  8
1
  6
CONTINUOUS
 10
1774712.900000
 20
-16060588.400000
30
-25679896.100000
  0
SEQEND
  8
0
  0
LINE
  8
1
  6
CONTINUOUS
 10
-25695934.300000
 20
1751963.800000
 30
-16061208.800000
 11
-25696136.500000
 21
1774933.700000
 31
-16061249.900000
  0
POLYLINE
  8
1
  6
CONTINUOUS
 66
     1
 70
     0
 210
1.000000
 220
0.000000
 230
0.000000
 10
0.000000
 20
0.000000
30
-25695356.100000
  0
VERTEX
  8
1
  6
CONTINUOUS
 10
1837847.600000
 20
-16057482.500000
30
-25695356.100000
  0
VERTEX
  8
1
  6
CONTINUOUS
 10
1778844.100000
 20
-16061335.400000
30
-25696195.000000
  0
SEQEND
  8
0
  0
POLYLINE
  8
1
  6
CONTINUOUS
 66
     1
 70
     0
 210
1.000000
 220
0.000000
 230
0.000000
 10
0.000000
 20
0.000000
30
-25704403.200000
  0
VERTEX
  8
1
  6
CONTINUOUS
 10
1837717.700000
 20
-16058233.700000
30
-25704403.200000
  0
VERTEX
  8
1
  6
CONTINUOUS
 10
1778912.600000
 20
-16059973.600000
30
-25703502.700000
  0
SEQEND
  8
0
  0
LINE
  8
1
  6
CONTINUOUS
 10
-25715385.900000
 20
1775399.400000
 30
-16228672.200000
 11
-25715385.900000
 21
1775223.100000
 31
-16228672.200000
  0
POLYLINE
  8
1
  6
CONTINUOUS
 66
     1
 70
     0
 210
-0.005170
 220
-0.234774
 230
0.972036
 10
0.000000
 20
0.000000
30
-15884376.054053
  0
VERTEX
  8
1
  6
CONTINUOUS
 10
-25678248.373537
 20
-2646115.256208
30
-15884376.054053
  0
VERTEX
  8
1
  6
CONTINUOUS
 10
-25701024.417113
 20
-2646375.868830
30
-15884376.054053
  0
VERTEX
  8
1
  6
CONTINUOUS
 10
-25735689.190699
 20
-2647783.687992
30
-15884376.054053
  0
SEQEND
  8
0
  0
POLYLINE
  8
1
  6
CONTINUOUS
 66
     1
 70
     0
 210
1.000000
 220
0.000000
 230
0.000000
 10
0.000000
 20
0.000000
30
-25646266.700000
  0
VERTEX
  8
1
  6
CONTINUOUS
 10
1774219.100000
 20
-16060319.800000
30
-25646266.700000
  0
VERTEX
  8
1
  6
CONTINUOUS
 10
1752671.400000
 20
-16059529.100000
30
-25646412.200000
  0
SEQEND
  8
0
  0
POLYLINE
  8
1
  6
CONTINUOUS
 66
     1
 70
     0
 210
-0.006459
 220
-0.068976
 230
0.997597
 10
0.000000
 20
0.000000
30
-15974996.049619
  0
VERTEX
  8
1
  6
CONTINUOUS
 10
-25690408.629298
 20
-1756344.564328
30
-15974996.049619
  0
VERTEX
  8
1
  6
CONTINUOUS
 10
-25764071.385899
 20
-1764205.006132
30
-15975166.707018
  0
VERTEX
  8
1
  6
CONTINUOUS
 10
-25762382.646078
 20
-1782279.350625
30
-15974996.049619
  0
VERTEX
  8
1
  6
CONTINUOUS
 10
-25688981.757543
 20
-1774114.412706
30
-15975166.707018
  0
SEQEND
  8
0
  0
POLYLINE
  8
1
  6
CONTINUOUS
 66
     1
 70
     0
 210
1.000000
 220
0.000000
 230
0.000000
 10
0.000000
 20
0.000000
30
-25680576.100000
  0
VERTEX
  8
1
  6
CONTINUOUS
 10
1680966.800000
 20
-16062581.100000
30
-25680576.100000
  0
VERTEX
  8
1
  6
CONTINUOUS
 10
1680692.800000
 20
-16062581.100000
30
-25703254.900000
  0
SEQEND
  8
0
  0
POLYLINE
  8
1
  6
CONTINUOUS
 66
     1
 70
     0
 210
0.034943
 220
-0.006419
 230
-0.999369
 10
0.000000
 20
0.000000
30
15115866.430432
  0
VERTEX
  8
1
  6
CONTINUOUS
 10
-2981906.233466
 20
-26426216.371160
30
15115866.430432
  0
VERTEX
  8
1
  6
CONTINUOUS
 10
-2987401.531540
 20
-26457720.127276
30
15117022.510902
  0
VERTEX
  8
1
  6
CONTINUOUS
 10
-2992692.363687
 20
-26487999.556668
30
15118091.033352
  0
VERTEX
  8
1
  6
CONTINUOUS
 10
-2997337.064919
 20
-26512825.354899
30
15116837.643801
  0
VERTEX
  8
1
  6
CONTINUOUS
 10
-2899896.217973
 20
-26529356.550289
30
15115768.857206
  0
VERTEX
  8
1
  6
CONTINUOUS
 10
-2894787.923367
 20
-26499860.297485
30
15117017.873521
  0
VERTEX
  8
1
  6
CONTINUOUS
 10
-2888869.406304
 20
-26467841.469918
30
15117755.187547
  0
VERTEX
  8
1
  6
CONTINUOUS
 10
-2883929.036175
 20
-26438778.647832
30
15117134.524828
  0
VERTEX
  8
1
  6
CONTINUOUS
 10
-2889993.015778
 20
-26437545.605354
30
15116336.427893
  0
VERTEX
  8
1
  6
CONTINUOUS
 10
-2933734.380654
 20
-26429882.022560
30
15116453.069386
  0
SEQEND
  8
0
  0
POLYLINE
  8
1
  6
CONTINUOUS
 66
     1
 70
     0
 210
-0.215620
 220
-0.006794
 230
-0.976454
 10
0.000000
 20
0.000000
30
21261557.688033
  0
VERTEX
  8
1
  6
CONTINUOUS
 10
-2558836.006073
 20
21845474.159761
30
21261557.688033
  0
VERTEX
  8
1
  6
CONTINUOUS
 10
-2592652.892305
 20
21844231.232119
30
21261283.089625
  0
VERTEX
  8
1
  6
CONTINUOUS
 10
-2592622.478646
 20
21846819.108909
30
21261844.584780
  0
VERTEX
  8
1
  6
CONTINUOUS
 10
-2592640.250306
 20
21850592.392442
30
21262421.670905
  0
VERTEX
  8
1
  6
CONTINUOUS
 10
-2592708.940554
 20
21851832.283405
30
21262234.030240
  0
VERTEX
  8
1
  6
CONTINUOUS
 10
-2595746.570797
 20
21850643.150607
30
21262012.281219
  0
VERTEX
  8
1
  6
CONTINUOUS
 10
-2598203.753398
 20
21849719.045363
30
21261818.463386
  0
VERTEX
  8
1
  6
CONTINUOUS
 10
-2600830.311458
 20
21848287.835346
30
21261563.817247
  0
VERTEX
  8
1
  6
CONTINUOUS
 10
-2601675.414620
 20
21846822.949459
30
21261804.366296
  0
VERTEX
  8
1
  6
CONTINUOUS
 10
-2601155.123339
 20
21845863.170724
30
21261787.212509
  0
VERTEX
  8
1
  6
CONTINUOUS
 10
-2600514.336226
 20
21844574.949803
30
21262118.100033
  0
VERTEX
  8
1
  6
CONTINUOUS
 10
-2600833.189941
 20
21842604.410223
30
21261867.399010
  0
VERTEX
  8
1
  6
CONTINUOUS
 10
-2603402.604177
 20
21841259.150442
30
21261559.951355
  0
VERTEX
  8
1
  6
CONTINUOUS
 10
-2604443.063437
 20
21840972.155796
30
21261496.545996
  0
SEQEND
  8
0
  0
POLYLINE
  8
1
  6
CONTINUOUS
 66
     1
 70
     0
 210
-0.014207
 220
-0.990614
 230
0.135948
 10
0.000000
 20
0.000000
30
-3637480.180406
  0
VERTEX
  8
1
  6
CONTINUOUS
 10
-26086857.774870
 20
-15696146.597721
30
-3637480.180406
  0
VERTEX
  8
1
  6
CONTINUOUS
 10
-26027717.435463
 20
-15695509.684611
30
-3637480.180406
  0
VERTEX
  8
1
  6
CONTINUOUS
 10
-25997379.919896
 20
-15694327.913026
30
-3637480.180406
  0
SEQEND
  8
0
  0
POLYLINE
  8
1
  6
CONTINUOUS
 66
     1
 70
     0
 210
-0.053904
 220
-0.298737
 230
0.952812
 10
0.000000
 20
0.000000
30
-14455472.740638
  0
VERTEX
  8
1
  6
CONTINUOUS
 10
-25468906.310298
 20
-7424879.537825
30
-14455472.740638
  0
VERTEX
  8
1
  6
CONTINUOUS
 10
-25557383.924685
 20
-7440812.992786
30
-14451510.812999
  0
VERTEX
  8
1
  6
CONTINUOUS
 10
-25585652.835656
 20
-7446141.645446
30
-14452325.695512
  0
VERTEX
  8
1
  6
CONTINUOUS
 10
-25586680.597103
 20
-7439790.075527
30
-14455043.217452
  0
VERTEX
  8
1
  6
CONTINUOUS
 10
-25617885.883066
 20
-7445161.581244
30
-14454614.404016
  0
VERTEX
  8
1
  6
CONTINUOUS
 10
-25616272.199040
 20
-7451377.863034
30
-14453306.780439
  0
VERTEX
  8
1
  6
CONTINUOUS
 10
-25771773.319370
 20
-7479163.038164
30
-14452160.604551
  0
VERTEX
  8
1
  6
CONTINUOUS
 10
-25772785.836098
 20
-7473351.429482
30
-14454506.268197
  0
VERTEX
  8
1
  6
CONTINUOUS
 10
-25805360.419891
 20
-7479388.828683
30
-14453760.247229
  0
VERTEX
  8
1
  6
CONTINUOUS
 10
-25804510.974146
 20
-7484003.112247
30
-14452384.828411
  0
VERTEX
  8
1
  6
CONTINUOUS
 10
-25842987.101134
 20
-7490880.309512
30
-14450498.677279
  0
VERTEX
  8
1
  6
CONTINUOUS
 10
-25881952.405984
 20
-7497660.071090
30
-14450035.763427
  0
SEQEND
  8
0
  0
LINE
  8
1
  6
CONTINUOUS
 10
-25969702.200000
 20
1882453.900000
 30
-16044664.600000
 11
-26048354.200000
 21
1883647.100000
 31
-16045773.400000
  0
LINE
  8
1
  6
CONTINUOUS
 10
-25969834.700000
 20
1897261.900000
 30
-16039952.800000
 11
-25962337.300000
 21
2031174.400000
 31
-16039952.800000
  0
LINE
  8
1
  6
CONTINUOUS
 10
-25959005.100000
 20
1896221.400000
 30
-16039952.800000
 11
-25951299.500000
 21
2030278.700000
 31
-16039952.800000
  0
POLYLINE
  8
1
  6
CONTINUOUS
 66
     1
 70
     0
 210
0.001418
 220
0.018289
 230
0.999832
 10
0.000000
 20
0.000000
30
-16040292.984083
  0
VERTEX
  8
1
  6
CONTINUOUS
 10
26027476.898116
 20
-178279.319942
30
-16040292.984083
  0
VERTEX
  8
1
  6
CONTINUOUS
 10
26029314.596475
 20
-178273.846543
30
-16039641.874927
  0
VERTEX
  8
1
  6
CONTINUOUS
 10
26035563.214122
 20
-178178.451158
30
-16039363.177976
  0
VERTEX
  8
1
  6
CONTINUOUS
 10
26039552.757515
 20
-178531.854028
30
-16039366.695701
  0
VERTEX
  8
1
  6
CONTINUOUS
 10
26039609.705392
 20
-178036.152258
30
-16039375.790448
  0
VERTEX
  8
1
  6
CONTINUOUS
 10
26040110.951094
 20
-177430.096135
30
-16039386.909890
  0
VERTEX
  8
1
  6
CONTINUOUS
 10
26039523.084165
 20
-176455.985290
30
-16039404.782111
  0
VERTEX
  8
1
  6
CONTINUOUS
 10
26039562.170601
 20
-175248.754745
30
-16039426.931429
  0
VERTEX
  8
1
  6
CONTINUOUS
 10
26039470.828789
 20
-173598.655168
30
-16039457.206161
  0
VERTEX
  8
1
  6
CONTINUOUS
 10
26039438.661240
 20
-172526.714380
30
-16039476.873289
  0
VERTEX
  8
1
  6
CONTINUOUS
 10
26039490.252190
 20
-172101.626099
30
-16039484.672475
  0
VERTEX
  8
1
  6
CONTINUOUS
 10
26039868.342785
 20
-171604.396779
30
-16039493.795248
  0
VERTEX
  8
1
  6
CONTINUOUS
 10
26039627.333267
 20
-171008.242414
30
-16039504.733021
  0
VERTEX
  8
1
  6
CONTINUOUS
 10
26039428.406871
 20
-170590.037709
30
-16039512.405912
  0
VERTEX
  8
1
  6
CONTINUOUS
 10
26039419.321065
 20
-170008.497704
30
-16039523.075552
  0
VERTEX
  8
1
  6
CONTINUOUS
 10
26039261.215504
 20
-169748.083297
30
-16039527.853431
  0
VERTEX
  8
1
  6
CONTINUOUS
 10
26037810.020281
 20
-169815.947387
30
-16039526.608314
  0
VERTEX
  8
1
  6
CONTINUOUS
 10
26033196.452907
 20
-169886.258961
30
-16039525.318292
  0
VERTEX
  8
1
  6
CONTINUOUS
 10
26027967.811276
 20
-169767.279104
30
-16039527.501241
  0
VERTEX
  8
1
  6
CONTINUOUS
 10
26027332.455225
 20
-170171.431310
30
-16039520.086174
  0
VERTEX
  8
1
  6
CONTINUOUS
 10
26026804.369168
 20
-170528.358545
30
-16039513.537553
  0
VERTEX
  8
1
  6
CONTINUOUS
 10
26026842.996119
 20
-171399.031650
30
-16039497.563127
  0
VERTEX
  8
1
  6
CONTINUOUS
 10
26027087.227609
 20
-171894.452490
30
-16039488.473534
  0
VERTEX
  8
1
  6
CONTINUOUS
 10
26027091.481520
 20
-172998.341130
30
-16039468.220252
  0
VERTEX
  8
1
  6
CONTINUOUS
 10
26027134.581123
 20
-174380.713586
30
-16039442.857567
  0
VERTEX
  8
1
  6
CONTINUOUS
 10
26027231.716802
 20
-175819.669032
30
-16039416.456742
  0
VERTEX
  8
1
  6
CONTINUOUS
 10
26026908.872189
 20
-176242.919104
30
-16039408.691282
  0
VERTEX
  8
1
  6
CONTINUOUS
 10
26026972.282779
 20
-177182.270471
30
-16039391.456801
  0
VERTEX
  8
1
  6
CONTINUOUS
 10
26027415.122764
 20
-177644.245098
30
-16039382.980853
  0
VERTEX
  8
1
  6
CONTINUOUS
 10
26027378.683279
 20
-178241.448286
30
-16039372.023837
  0
SEQEND
  8
0
  0
POLYLINE
  8
1
  6
CONTINUOUS
 66
     1
 70
     0
 210
1.000000
 220
0.000000
 230
0.000000
 10
0.000000
 20
0.000000
30
-25975794.900000
  0
VERTEX
  8
1
  6
CONTINUOUS
 10
1820796.900000
 20
-16036647.200000
30
-25975794.900000
  0
VERTEX
  8
1
  6
CONTINUOUS
 10
1888541.800000
 20
-16036439.000000
30
-25969100.600000
  0
SEQEND
  8
0
  0
POLYLINE
  8
1
  6
CONTINUOUS
 66
     1
 70
     0
 210
1.000000
 220
0.000000
 230
0.000000
 10
0.000000
 20
0.000000
30
-25966201.100000
  0
VERTEX
  8
1
  6
CONTINUOUS
 10
1819508.900000
 20
-16037949.400000
30
-25966201.100000
  0
VERTEX
  8
1
  6
CONTINUOUS
 10
1887786.500000
 20
-16037880.000000
30
-25959743.100000
  0
SEQEND
  8
0
  0
POLYLINE
  8
1
  6
CONTINUOUS
 66
     1
 70
     0
 210
-0.041104
 220
-0.124561
 230
0.991360
 10
0.000000
 20
0.000000
30
-15074999.143799
  0
VERTEX
  8
1
  6
CONTINUOUS
 10
-25243031.989303
 20
-8390243.868709
30
-15074999.143799
  0
VERTEX
  8
1
  6
CONTINUOUS
 10
-25242831.898077
 20
-8390164.962515
30
-15075076.360921
  0
VERTEX
  8
1
  6
CONTINUOUS
 10
-25241509.514919
 20
-8388850.434853
30
-15075250.287735
  0
VERTEX
  8
1
  6
CONTINUOUS
 10
-25241085.451258
 20
-8387122.388781
30
-15074923.226512
  0
VERTEX
  8
1
  6
CONTINUOUS
 10
-25241579.397840
 20
-8386138.479486
30
-15075023.046466
  0
VERTEX
  8
1
  6
CONTINUOUS
 10
-25242793.900574
 20
-8385510.140368
30
-15075176.994612
  0
VERTEX
  8
1
  6
CONTINUOUS
 10
-25244222.952221
 20
-8385777.008802
30
-15075161.859216
  0
VERTEX
  8
1
  6
CONTINUOUS
 10
-25244288.707465
 20
-8385791.239182
30
-15075160.985092
  0
SEQEND
  8
0
  0
ARC
  8
1
  6
CONTINUOUS
 10
-25958219.200000
 20
1891677.600000
30
-16228672.200000
 40
768.604775
 50
241.236686
 51
113.301239
  0
POLYLINE
  8
1
  6
CONTINUOUS
 66
     1
 70
     0
 210
0.919648
 220
0.013481
 230
-0.392513
 10
0.000000
 20
0.000000
30
-17503608.123037
  0
VERTEX
  8
1
  6
CONTINUOUS
 10
2044765.802040
 20
-24916383.969695
30
-17503608.123037
  0
VERTEX
  8
1
  6
CONTINUOUS
 10
2138623.084647
 20
-24916383.969695
30
-17503608.123037
  0
VERTEX
  8
1
  6
CONTINUOUS
 10
2237925.597040
 20
-24915696.497642
30
-17503608.123037
  0
SEQEND
  8
0
  0
POLYLINE
  8
1
  6
CONTINUOUS
 66
     1
 70
     0
 210
-0.016370
 220
0.038425
 230
0.999127
 10
0.000000
 20
0.000000
30
-15535041.991491
  0
VERTEX
  8
1
  6
CONTINUOUS
 10
23113345.008359
 20
-12527043.700908
30
-15535041.991491
  0
VERTEX
  8
1
  6
CONTINUOUS
 10
23024505.085142
 20
-12490330.721071
30
-15535614.275697
  0
VERTEX
  8
1
  6
CONTINUOUS
 10
23022512.176372
 20
-12494702.722482
30
-15535421.502837
  0
VERTEX
  8
1
  6
CONTINUOUS
 10
23111432.272139
 20
-12531773.366059
30
-15535235.317065
  0
VERTEX
  8
1
  6
CONTINUOUS
 10
23113461.166353
 20
-12527113.158869
30
-15535778.933519
  0
SEQEND
  8
0
  0
POLYLINE
  8
1
  6
CONTINUOUS
 66
     1
 70
     0
 210
0.072939
 220
0.167200
 230
-0.983221
 10
0.000000
 20
0.000000
30
14200196.168595
  0
VERTEX
  8
1
  6
CONTINUOUS
 10
24408673.563074
 20
-11400862.546044
30
14200196.168595
  0
VERTEX
  8
1
  6
CONTINUOUS
 10
24407493.190644
 20
-11403717.543387
30
14200196.168595
  0
VERTEX
  8
1
  6
CONTINUOUS
 10
24485518.112296
 20
-11439333.196683
30
14200196.168595
  0
SEQEND
  8
0
  0
POLYLINE
  8
1
  6
CONTINUOUS
 66
     1
 70
     0
 210
-0.015409
 220
0.058833
 230
0.998149
 10
0.000000
 20
0.000000
30
-15503071.408521
  0
VERTEX
  8
1
  6
CONTINUOUS
 10
24596599.214115
 20
-9332561.727278
30
-15503071.408521
  0
VERTEX
  8
1
  6
CONTINUOUS
 10
24591232.038213
 20
-9330925.026005
30
-15503171.133086
  0
VERTEX
  8
1
  6
CONTINUOUS
 10
24589015.354235
 20
-9330373.096247
30
-15503194.743741
  0
VERTEX
  8
1
  6
CONTINUOUS
 10
24587517.462559
 20
-9330880.486436
30
-15503214.021258
  0
VERTEX
  8
1
  6
CONTINUOUS
 10
24583477.067381
 20
-9330506.474172
30
-15503236.809907
  0
VERTEX
  8
1
  6
CONTINUOUS
 10
24582833.191588
 20
-9331533.405627
30
-15503174.238749
  0
VERTEX
  8
1
  6
CONTINUOUS
 10
24580767.650577
 20
-9330846.909828
30
-15503216.067088
  0
VERTEX
  8
1
  6
CONTINUOUS
 10
24580683.269515
 20
-9330129.613628
30
-15503259.772102
  0
VERTEX
  8
1
  6
CONTINUOUS
 10
24568240.993765
 20
-9327179.249873
30
-15503439.538407
  0
VERTEX
  8
1
  6
CONTINUOUS
 10
24561970.813171
 20
-9335691.796161
30
-15502930.885654
  0
VERTEX
  8
1
  6
CONTINUOUS
 10
24559368.537699
 20
-9335944.360343
30
-15503547.667070
  0
VERTEX
  8
1
  6
CONTINUOUS
 10
24560487.022591
 20
-9338289.109290
30
-15503395.784315
  0
SEQEND
  8
0
  0
POLYLINE
  8
1
  6
CONTINUOUS
 66
     1
 70
     0
 210
-0.056333
 220
0.014824
 230
0.998302
 10
0.000000
 20
0.000000
30
-14529270.970263
  0
VERTEX
  8
1
  6
CONTINUOUS
 10
4930541.102471
 20
-26290415.283010
30
-14529270.970263
  0
VERTEX
  8
1
  6
CONTINUOUS
 10
4824112.180941
 20
-26317067.332135
30
-14529160.792157
  0
VERTEX
  8
1
  6
CONTINUOUS
 10
4766200.853119
 20
-26331746.402943
30
-14530250.882202
  0
VERTEX
  8
1
  6
CONTINUOUS
 10
4766797.245135
 20
-26333266.529762
30
-14529800.970345
  0
VERTEX
  8
1
  6
CONTINUOUS
 10
4766037.916306
 20
-26334758.081677
30
-14529723.956163
  0
VERTEX
  8
1
  6
CONTINUOUS
 10
4767565.735553
 20
-26340880.989057
30
-14529366.688065
  0
VERTEX
  8
1
  6
CONTINUOUS
 10
4766311.244076
 20
-26341516.925037
30
-14529329.581569
  0
VERTEX
  8
1
  6
CONTINUOUS
 10
4766695.411315
 20
-26343730.290140
30
-14529200.432997
  0
VERTEX
  8
1
  6
CONTINUOUS
 10
4766541.028060
 20
-26345246.462904
30
-14529152.133400
  0
VERTEX
  8
1
  6
CONTINUOUS
 10
4766684.876442
 20
-26347542.472345
30
-14529218.803266
  0
VERTEX
  8
1
  6
CONTINUOUS
 10
4767430.639860
 20
-26349595.530806
30
-14529149.193708
  0
VERTEX
  8
1
  6
CONTINUOUS
 10
4766467.159651
 20
-26352123.537573
30
-14529101.956236
  0
VERTEX
  8
1
  6
CONTINUOUS
 10
4766272.903467
 20
-26355290.911116
30
-14529158.050887
  0
VERTEX
  8
1
  6
CONTINUOUS
 10
4766820.215311
 20
-26359747.815569
30
-14528988.246343
  0
VERTEX
  8
1
  6
CONTINUOUS
 10
4767741.703460
 20
-26364228.750114
30
-14529077.982738
  0
VERTEX
  8
1
  6
CONTINUOUS
 10
4768379.985430
 20
-26367056.278166
30
-14529224.026237
  0
VERTEX
  8
1
  6
CONTINUOUS
 10
4767941.338966
 20
-26370693.967743
30
-14529362.965487
  0
VERTEX
  8
1
  6
CONTINUOUS
 10
4766912.557754
 20
-26374354.101127
30
-14529279.820279
  0
VERTEX
  8
1
  6
CONTINUOUS
 10
4766768.529965
 20
-26378263.673538
30
-14529503.265751
  0
VERTEX
  8
1
  6
CONTINUOUS
 10
4766190.062171
 20
-26381268.513900
30
-14529719.299591
  0
VERTEX
  8
1
  6
CONTINUOUS
 10
4766156.521403
 20
-26384608.310205
30
-14529524.424411
  0
VERTEX
  8
1
  6
CONTINUOUS
 10
4766825.885442
 20
-26389319.021207
30
-14529620.787500
  0
VERTEX
  8
1
  6
CONTINUOUS
 10
4766522.086414
 20
-26392374.099325
30
-14529582.963925
  0
VERTEX
  8
1
  6
CONTINUOUS
 10
4765929.851458
 20
-26395730.785285
30
-14529738.299573
  0
VERTEX
  8
1
  6
CONTINUOUS
 10
4766456.183739
 20
-26399676.041329
30
-14529508.096168
  0
SEQEND
  8
0
  0
LINE
  8
1
  6
CONTINUOUS
 10
-25908926.100000
 20
2014406.800000
 30
-16047024.800000
 11
-25907852.900000
 21
1966844.100000
 31
-16047024.800000
  0
POLYLINE
  8
1
  6
CONTINUOUS
 66
     1
 70
     0
 210
1.000000
 220
0.000000
 230
0.000000
 10
0.000000
 20
0.000000
30
-25807753.500000
  0
VERTEX
  8
1
  6
CONTINUOUS
 10
1968947.800000
 20
-16046313.600000
30
-25807753.500000
  0
VERTEX
  8
1
  6
CONTINUOUS
 10
1967965.800000
 20
-16046070.500000
30
-25860244.600000
  0
SEQEND
  8
0
  0
POLYLINE
  8
1
  6
CONTINUOUS
 66
     1
 70
     0
 210
1.000000
 220
0.000000
 230
0.000000
 10
0.000000
 20
0.000000
30
-25875630.600000
  0
VERTEX
  8
1
  6
CONTINUOUS
 10
1962053.300000
 20
-16028563.500000
30
-25875630.600000
  0
VERTEX
  8
1
  6
CONTINUOUS
 10
1962502.200000
 20
-16030176.900000
30
-25896504.600000
  0
SEQEND
  8
0
  0
LINE
  8
1
  6
CONTINUOUS
 10
-25901296.500000
 20
1967321.600000
 30
-16046801.300000
 11
-25917414.300000
 21
1966147.900000
 31
-16046771.900000
  0
LINE
  8
1
  6
CONTINUOUS
 10
-25915065.700000
 20
1968303.700000
 30
-16046266.500000
 11
-25913715.400000
 21
1968207.400000
 31
-16046108.600000
  0
POLYLINE
  8
1
  6
CONTINUOUS
 66
     1
 70
     0
 210
0.108769
 220
-0.032569
 230
-0.993533
 10
0.000000
 20
0.000000
30
13059489.358749
  0
VERTEX
  8
1
  6
CONTINUOUS
 10
-5548059.495184
 20
-27048316.224033
30
13059489.358749
  0
VERTEX
  8
1
  6
CONTINUOUS
 10
-5535881.810713
 20
-27051522.872986
30
13059434.218077
  0
VERTEX
  8
1
  6
CONTINUOUS
 10
-5524133.438563
 20
-27000341.888668
30
13059566.581753
  0
VERTEX
  8
1
  6
CONTINUOUS
 10
-5535901.816248
 20
-26993510.731700
30
13059359.253105
  0
VERTEX
  8
1
  6
CONTINUOUS
 10
-5547764.419372
 20
-27047002.930020
30
13059633.603408
  0
SEQEND
  8
0
  0
POLYLINE
  8
1
  6
CONTINUOUS
 66
     1
 70
     0
 210
0.000000
 220
0.000000
 230
-1.000000
 10
0.000000
 20
0.000000
30
16039952.800000
  0
VERTEX
  8
1
  6
CONTINUOUS
 10
25962348.500000
 20
2030973.600000
30
16039952.800000
  0
VERTEX
  8
1
  6
CONTINUOUS
 10
25963131.500000
 20
2031347.300000
30
16039952.800000
  0
VERTEX
  8
1
  6
CONTINUOUS
 10
25963001.500000
 20
2032327.700000
30
16039952.800000
  0
VERTEX
  8
1
  6
CONTINUOUS
 10
25962741.600000
 20
2032265.000000
30
16039952.800000
  0
VERTEX
  8
1
  6
CONTINUOUS
 10
25962580.500000
 20
2037362.300000
30
16039952.800000
  0
VERTEX
  8
1
  6
CONTINUOUS
 10
25962820.700000
 20
2037384.700000
30
16039952.800000
  0
VERTEX
  8
1
  6
CONTINUOUS
 10
25962759.500000
 20
2038496.000000
30
16039952.800000
  0
VERTEX
  8
1
  6
CONTINUOUS
 10
25962479.800000
 20
2038413.100000
30
16039952.800000
  0
SEQEND
  8
0
  0
POLYLINE
  8
1
  6
CONTINUOUS
 66
     1
 70
     0
 210
-0.005618
 220
0.007502
 230
-0.999956
 10
0.000000
 20
0.000000
30
16210865.947040
  0
VERTEX
  8
1
  6
CONTINUOUS
 10
25996255.122827
 20
1820427.298100
30
16210865.947040
  0
VERTEX
  8
1
  6
CONTINUOUS
 10
25996519.334381
 20
1827957.428973
30
16210956.726200
  0
VERTEX
  8
1
  6
CONTINUOUS
 10
25986983.284878
 20
1827912.632171
30
16210902.813368
  0
VERTEX
  8
1
  6
CONTINUOUS
 10
25986921.404383
 20
1823053.295659
30
16210916.111711
  0
VERTEX
  8
1
  6
CONTINUOUS
 10
25990381.305961
 20
1820663.692098
30
16210907.622650
  0
VERTEX
  8
1
  6
CONTINUOUS
 10
25996254.514388
 20
1820426.485637
30
16210974.242284
  0
SEQEND
  8
0
  0
POLYLINE
  8
1
  6
CONTINUOUS
 66
     1
 70
     0
 210
0.000000
 220
0.000000
 230
-1.000000
 10
0.000000
 20
0.000000
30
16228672.200000
  0
VERTEX
  8
1
  6
CONTINUOUS
 10
26086023.200000
 20
1939169.500000
 42
0.107711
  0
VERTEX
  8
1
  6
CONTINUOUS
 10
26086264.581276
 20
1940961.328368
 42
0.116318
  0
VERTEX
  8
1
  6
CONTINUOUS
 10
26085740.000000
 20
1942682.400000
 42
0.062051
  0
VERTEX
  8
1
  6
CONTINUOUS
 10
26084064.104856
 20
1944875.746374
 42
0.145396
  0
VERTEX
  8
1
  6
CONTINUOUS
 10
26081774.800000
 20
1946195.400000
  0
SEQEND
  8
0
  0
POLYLINE
  8
1
  6
CONTINUOUS
 66
     1
 70
     0
 210
0.000000
 220
0.000000
 230
-1.000000
 10
0.000000
 20
0.000000
30
16228672.200000
  0
VERTEX
  8
1
  6
CONTINUOUS
 10
26083474.100000
 20
1938993.800000
 42
0.105764
  0
VERTEX
  8
1
  6
CONTINUOUS
 10
26083585.746773
 20
1940414.680623
 42
0.077149
  0
VERTEX
  8
1
  6
CONTINUOUS
 10
26083190.900000
 20
1941804.200000
 42
0.082443
  0
VERTEX
  8
1
  6
CONTINUOUS
 10
26082417.362102
 20
1942946.041014
 42
0.102155
  0
VERTEX
  8
1
  6
CONTINUOUS
 10
26081302.700000
 20
1943736.300000
  0
SEQEND
  8
0
  0
LINE
  8
1
  6
CONTINUOUS
 10
-26086091.500000
 20
1939314.200000
 30
-16228672.200000
 11
-26083474.100000
 21
1938993.800000
 31
-16228672.200000
  0
POLYLINE
  8
1
  6
CONTINUOUS
 66
     1
 70
     0
 210
-0.018234
 220
-0.013017
 230
0.999749
 10
0.000000
 20
0.000000
30
-15590861.616200
  0
VERTEX
  8
1
  6
CONTINUOUS
 10
-16704062.086141
 20
-20507253.789994
30
-15590861.616200
  0
VERTEX
  8
1
  6
CONTINUOUS
 10
-16698300.132484
 20
-20510334.807010
30
-15590781.670283
  0
VERTEX
  8
1
  6
CONTINUOUS
 10
-16692614.906501
 20
-20511159.044912
30
-15590833.317356
  0
VERTEX
  8
1
  6
CONTINUOUS
 10
-16689473.982053
 20
-20512444.426740
30
-15590794.510444
  0
VERTEX
  8
1
  6
CONTINUOUS
 10
-16685810.213868
 20
-20511942.241712
30
-15590805.764018
  0
VERTEX
  8
1
  6
CONTINUOUS
 10
-16680894.614862
 20
-20511559.403761
30
-15590814.343116
  0
VERTEX
  8
1
  6
CONTINUOUS
 10
-16676039.718507
 20
-20512024.447263
30
-15590793.819320
  0
VERTEX
  8
1
  6
CONTINUOUS
 10
-16670063.094258
 20
-20514249.322552
30
-15590743.961606
  0
SEQEND
  8
0
  0
LINE
  8
1
  6
CONTINUOUS
 10
-26129685.900000
 20
1844554.100000
 30
-16052073.300000
 11
-26129532.800000
 21
1867883.300000
 31
-16052093.300000
  0
POLYLINE
  8
1
  6
CONTINUOUS
 66
     1
 70
     0
 210
-0.031266
 220
0.021645
 230
-0.999277
 10
0.000000
 20
0.000000
30
16892501.940101
  0
VERTEX
  8
1
  6
CONTINUOUS
 10
13355364.076886
 20
21907275.603712
30
16892501.940101
  0
VERTEX
  8
1
  6
CONTINUOUS
 10
13354431.379243
 20
21903495.282589
30
16892358.081656
  0
VERTEX
  8
1
  6
CONTINUOUS
 10
13344943.890755
 20
21889557.747437
30
16891827.694934
  0
VERTEX
  8
1
  6
CONTINUOUS
 10
13344836.838165
 20
21885312.917604
30
16891686.174293
  0
VERTEX
  8
1
  6
CONTINUOUS
 10
13343347.699350
 20
21880892.091895
30
16891838.773784
  0
VERTEX
  8
1
  6
CONTINUOUS
 10
13341634.044089
 20
21883539.716424
30
16891939.527962
  0
VERTEX
  8
1
  6
CONTINUOUS
 10
13341116.854913
 20
21885327.224304
30
16892047.579735
  0
VERTEX
  8
1
  6
CONTINUOUS
 10
13340509.371559
 20
21889121.895340
30
16892252.127760
  0
VERTEX
  8
1
  6
CONTINUOUS
 10
13338523.316321
 20
21889922.568872
30
16892282.597036
  0
VERTEX
  8
1
  6
CONTINUOUS
 10
13336660.709908
 20
21890505.330346
30
16892024.170809
  0
VERTEX
  8
1
  6
CONTINUOUS
 10
13333451.179787
 20
21888216.886636
30
16891937.085098
  0
VERTEX
  8
1
  6
CONTINUOUS
 10
13331728.805963
 20
21886419.300545
30
16891587.975726
  0
VERTEX
  8
1
  6
CONTINUOUS
 10
13330079.885631
 20
21884767.766748
30
16891184.280809
  0
VERTEX
  8
1
  6
CONTINUOUS
 10
13328613.497666
 20
21882264.464830
30
16891139.155027
  0
VERTEX
  8
1
  6
CONTINUOUS
 10
13329868.217017
 20
21878453.340857
30
16890653.277863
  0
VERTEX
  8
1
  6
CONTINUOUS
 10
13333266.556013
 20
21874847.892144
30
16890475.945086
  0
VERTEX
  8
1
  6
CONTINUOUS
 10
13338533.808714
 20
21872963.032988
30
16890374.195892
  0
VERTEX
  8
1
  6
CONTINUOUS
 10
13341794.629184
 20
21872798.856433
30
16891630.961750
  0
VERTEX
  8
1
  6
CONTINUOUS
 10
13346398.855747
 20
21873983.422058
30
16891736.183371
  0
VERTEX
  8
1
  6
CONTINUOUS
 10
13354101.764729
 20
21872690.697591
30
16892178.244634
  0
VERTEX
  8
1
  6
CONTINUOUS
 10
13358604.820570
 20
21869677.402139
30
16892073.582249
  0
VERTEX
  8
1
  6
CONTINUOUS
 10
13362848.056935
 20
21866102.849415
30
16891937.554230
  0
VERTEX
  8
1
  6
CONTINUOUS
 10
13367352.889046
 20
21861843.045182
30
16891785.456506
  0
VERTEX
  8
1
  6
CONTINUOUS
 10
13372544.253871
 20
21860568.002204
30
16891967.502077
  0
VERTEX
  8
1
  6
CONTINUOUS
 10
13375844.012154
 20
21857134.381844
30
16891896.980678
  0
VERTEX
  8
1
  6
CONTINUOUS
 10
13379344.282828
 20
21851947.281314
30
16891689.580628
  0
VERTEX
  8
1
  6
CONTINUOUS
 10
13384683.684125
 20
21847473.287060
30
16891519.324760
  0
VERTEX
  8
1
  6
CONTINUOUS
 10
13389767.814292
 20
21843764.743795
30
16891378.197790
  0
VERTEX
  8
1
  6
CONTINUOUS
 10
13395197.327699
 20
21839084.629619
30
16891200.098120
  0
VERTEX
  8
1
  6
CONTINUOUS
 10
13399515.674499
 20
21835531.767013
30
16891064.895508
  0
VERTEX
  8
1
  6
CONTINUOUS
 10
13404557.297523
 20
21832080.969415
30
16890953.591411
  0
VERTEX
  8
1
  6
CONTINUOUS
 10
13407488.372544
 20
21829133.345890
30
16891041.865884
  0
VERTEX
  8
1
  6
CONTINUOUS
 10
13410891.817060
 20
21827672.874030
30
16891046.431776
  0
VERTEX
  8
1
  6
CONTINUOUS
 10
13415303.546901
 20
21825434.846894
30
16890971.371956
  0
VERTEX
  8
1
  6
CONTINUOUS
 10
13415374.992578
 20
21821650.309595
30
16890827.353067
  0
VERTEX
  8
1
  6
CONTINUOUS
 10
13412376.821698
 20
21817924.910645
30
16890685.584661
  0
VERTEX
  8
1
  6
CONTINUOUS
 10
13409774.928372
 20
21814052.249526
30
16890538.212259
  0
VERTEX
  8
1
  6
CONTINUOUS
 10
13407029.651161
 20
21810324.967033
30
16890396.372176
  0
VERTEX
  8
1
  6
CONTINUOUS
 10
13405394.953971
 20
21807611.004160
30
16890293.093522
  0
VERTEX
  8
1
  6
CONTINUOUS
 10
13403731.208519
 20
21805460.777279
30
16890211.267591
  0
SEQEND
  8
0
  0
POLYLINE
  8
1
  6
CONTINUOUS
 66
     1
 70
     0
 210
-0.592935
 220
0.073664
 230
0.801874
 10
0.000000
 20
0.000000
30
2760586.759938
  0
VERTEX
  8
1
  6
CONTINUOUS
 10
1389507.335113
 20
-30563307.258176
30
2760586.759938
  0
VERTEX
  8
1
  6
CONTINUOUS
 10
1368749.420503
 20
-30564446.445003
30
2761435.591395
  0
VERTEX
  8
1
  6
CONTINUOUS
 10
1365716.519036
 20
-30563391.233848
30
2760511.903892
  0
VERTEX
  8
1
  6
CONTINUOUS
 10
1360118.490279
 20
-30563664.939705
30
2760403.579303
  0
VERTEX
  8
1
  6
CONTINUOUS
 10
1355233.071311
 20
-30562632.441468
30
2759634.243701
  0
VERTEX
  8
1
  6
CONTINUOUS
 10
1350066.207862
 20
-30562668.573753
30
2759661.166607
  0
VERTEX
  8
1
  6
CONTINUOUS
 10
1348976.417161
 20
-30563987.744783
30
2760644.107984
  0
SEQEND
  8
0
  0
POLYLINE
  8
1
  6
CONTINUOUS
 66
     1
 70
     0
 210
-0.033346
 220
-0.013419
 230
0.999354
 10
0.000000
 20
0.000000
30
-15191985.199346
  0
VERTEX
  8
1
  6
CONTINUOUS
 10
-11473059.454086
 20
-24025685.278361
30
-15191985.199346
  0
VERTEX
  8
1
  6
CONTINUOUS
 10
-11495975.608222
 20
-24078207.384092
30
-15191606.481382
  0
VERTEX
  8
1
  6
CONTINUOUS
 10
-11503465.637825
 20
-24094457.327157
30
-15191883.966966
  0
VERTEX
  8
1
  6
CONTINUOUS
 10
-11500047.705114
 20
-24093325.463415
30
-15191924.677386
  0
VERTEX
  8
1
  6
CONTINUOUS
 10
-11495582.832433
 20
-24095606.547515
30
-15191842.632271
  0
VERTEX
  8
1
  6
CONTINUOUS
 10
-11492970.905506
 20
-24098984.316914
30
-15191721.142019
  0
VERTEX
  8
1
  6
CONTINUOUS
 10
-11489674.857860
 20
-24100239.928564
30
-15191675.980684
  0
VERTEX
  8
1
  6
CONTINUOUS
 10
-11486675.923012
 20
-24102369.373843
30
-15191599.389653
  0
VERTEX
  8
1
  6
CONTINUOUS
 10
-11486363.927339
 20
-24103194.832562
30
-15191569.699885
  0
SEQEND
  8
0
  0
POLYLINE
  8
1
  6
CONTINUOUS
 66
     1
 70
     0
 210
0.029247
 220
0.066822
 230
-0.997336
 10
0.000000
 20
0.000000
30
15360292.831343
  0
VERTEX
  8
1
  6
CONTINUOUS
 10
24586220.952658
 20
-9999999.456748
30
15360292.831343
  0
VERTEX
  8
1
  6
CONTINUOUS
 10
24607326.736184
 20
-9957323.174240
30
15363745.431488
  0
VERTEX
  8
1
  6
CONTINUOUS
 10
24620305.510205
 20
-9931624.835432
30
15364680.817208
  0
VERTEX
  8
1
  6
CONTINUOUS
 10
24628467.326850
 20
-9912324.025854
30
15362848.379896
  0
VERTEX
  8
1
  6
CONTINUOUS
 10
24616004.205891
 20
-9908084.318956
30
15363158.459550
  0
VERTEX
  8
1
  6
CONTINUOUS
 10
24615874.672903
 20
-9906118.225565
30
15363302.253820
  0
VERTEX
  8
1
  6
CONTINUOUS
 10
24615414.849638
 20
-9903523.271952
30
15363492.041072
  0
VERTEX
  8
1
  6
CONTINUOUS
 10
24613646.850230
 20
-9901697.440312
30
15363625.577011
  0
VERTEX
  8
1
  6
CONTINUOUS
 10
24613968.285579
 20
-9898522.170361
30
15363857.806887
  0
VERTEX
  8
1
  6
CONTINUOUS
 10
24613606.207695
 20
-9895545.298403
30
15364075.526520
  0
VERTEX
  8
1
  6
CONTINUOUS
 10
24612462.550949
 20
-9893582.769660
30
15364219.060082
  0
VERTEX
  8
1
  6
CONTINUOUS
 10
24612115.185646
 20
-9890690.940966
30
15364320.065563
  0
VERTEX
  8
1
  6
CONTINUOUS
 10
24612595.678100
 20
-9887475.330920
30
15364565.272504
  0
VERTEX
  8
1
  6
CONTINUOUS
 10
24613845.903755
 20
-9883272.137837
30
15364872.681646
  0
VERTEX
  8
1
  6
CONTINUOUS
 10
24615276.061170
 20
-9880024.749306
30
15365110.186062
  0
VERTEX
  8
1
  6
CONTINUOUS
 10
24616437.164919
 20
-9877094.784136
30
15365585.570585
  0
VERTEX
  8
1
  6
CONTINUOUS
 10
24617923.431469
 20
-9873172.199553
30
15366113.498945
  0
VERTEX
  8
1
  6
CONTINUOUS
 10
24618612.458508
 20
-9870285.547278
30
15366354.800571
  0
VERTEX
  8
1
  6
CONTINUOUS
 10
24619377.754864
 20
-9868510.735474
30
15366725.647166
  0
VERTEX
  8
1
  6
CONTINUOUS
 10
24620387.647977
 20
-9866755.266569
30
15366854.036983
  0
SEQEND
  8
0
  0
POLYLINE
  8
1
  6
CONTINUOUS
 66
     1
 70
     0
 210
-0.143339
 220
0.087842
 230
0.985767
 10
0.000000
 20
0.000000
30
-11918090.217857
  0
VERTEX
  8
1
  6
CONTINUOUS
 10
12009160.488141
 20
-25561150.750541
30
-11918090.217857
  0
VERTEX
  8
1
  6
CONTINUOUS
 10
12006688.021514
 20
-25561150.750541
30
-11918090.217857
  0
VERTEX
  8
1
  6
CONTINUOUS
 10
12004775.928676
 20
-25561196.552696
30
-11918090.217857
  0
SEQEND
  8
0
  0
LINE
  8
1
  6
CONTINUOUS
 10
-26048403.600000
 20
1883461.300000
 30
-16045670.200000
 11
-26048299.200000
 21
1883648.300000
 31
-16228672.200000
  0
POLYLINE
  8
1
  6
CONTINUOUS
 66
     1
 70
     0
 210
0.017279
 220
-0.487159
 230
-0.873142
 10
0.000000
 20
0.000000
30
12544524.657344
  0
VERTEX
  8
1
  6
CONTINUOUS
 10
-25114873.248502
 20
-10365801.194672
30
12544524.657344
  0
VERTEX
  8
1
  6
CONTINUOUS
 10
-25113902.602910
 20
-10365743.161041
30
12544511.245328
  0
VERTEX
  8
1
  6
CONTINUOUS
 10
-25112621.887378
 20
-10358063.715170
30
12545356.887954
  0
VERTEX
  8
1
  6
CONTINUOUS
 10
-25132066.184862
 20
-10358676.078949
30
12546058.942800
  0
VERTEX
  8
1
  6
CONTINUOUS
 10
-25174573.785755
 20
-10358639.423366
30
12546079.407209
  0
VERTEX
  8
1
  6
CONTINUOUS
 10
-25216193.538774
 20
-10360647.878450
30
12544086.200382
  0
VERTEX
  8
1
  6
CONTINUOUS
 10
-25256715.192344
 20
-10367125.303110
30
12545345.763725
  0
VERTEX
  8
1
  6
CONTINUOUS
 10
-25275460.236413
 20
-10370289.987538
30
12546312.874271
  0
SEQEND
  8
0
  0
POLYLINE
  8
1
  6
HIDDEN
 66
     1
 70
     0
 210
0.092675
 220
0.994268
 230
-0.053323
 10
0.000000
 20
0.000000
30
532468.599109
  0
VERTEX
  8
1
  6
HIDDEN
 10
25443928.765923
 20
-16004279.158625
30
532468.599109
  0
VERTEX
  8
1
  6
HIDDEN
 10
25453111.444701
 20
-16005441.612402
30
532468.599109
  0
VERTEX
  8
1
  6
HIDDEN
 10
25459555.872795
 20
-16005479.065686
30
532468.599109
  0
SEQEND
  8
0
  0
POLYLINE
  8
1
  6
CONTINUOUS
 66
     1
 70
     0
 210
0.037237
 220
0.118431
 230
-0.992264
 10
0.000000
 20
0.000000
30
15187627.455544
  0
VERTEX
  8
1
  6
CONTINUOUS
 10
25366025.808091
 20
-7784812.984333
30
15187627.455544
  0
VERTEX
  8
1
  6
CONTINUOUS
 10
25299268.358887
 20
-7761881.268681
30
15187932.428038
  0
VERTEX
  8
1
  6
CONTINUOUS
 10
25224684.225573
 20
-7737367.572957
30
15188738.173350
  0
VERTEX
  8
1
  6
CONTINUOUS
 10
25178620.601750
 20
-7722118.544127
30
15187890.140256
  0
VERTEX
  8
1
  6
CONTINUOUS
 10
25113627.391013
 20
-7701114.278979
30
15185965.173469
  0
VERTEX
  8
1
  6
CONTINUOUS
 10
25069772.755441
 20
-7687105.071749
30
15183639.589077
  0
VERTEX
  8
1
  6
CONTINUOUS
 10
25023581.289563
 20
-7670567.544808
30
15184103.569709
  0
VERTEX
  8
1
  6
CONTINUOUS
 10
24997971.629483
 20
-7662374.512151
30
15184341.252277
  0
VERTEX
  8
1
  6
CONTINUOUS
 10
24958935.473059
 20
-7650904.535913
30
15185725.831550
  0
VERTEX
  8
1
  6
CONTINUOUS
 10
24909650.534941
 20
-7637319.317279
30
15187415.472718
  0
VERTEX
  8
1
  6
CONTINUOUS
 10
24855579.502442
 20
-7622348.911831
30
15186865.656320
  0
VERTEX
  8
1
  6
CONTINUOUS
 10
24822412.105956
 20
-7612868.578605
30
15185559.611315
  0
SEQEND
  8
0
  0
POLYLINE
  8
1
  6
CONTINUOUS
 66
     1
 70
     0
 210
0.001223
 220
-0.827789
 230
-0.561039
 10
0.000000
 20
0.000000
30
7265423.753024
  0
VERTEX
  8
1
  6
CONTINUOUS
 10
-25197306.771474
 20
-14416945.039300
30
7265423.753024
  0
VERTEX
  8
1
  6
CONTINUOUS
 10
-25251911.502594
 20
-14413704.996126
30
7266065.730100
  0
VERTEX
  8
1
  6
CONTINUOUS
 10
-25297839.170980
 20
-14414782.970882
30
7265421.503104
  0
VERTEX
  8
1
  6
CONTINUOUS
 10
-25355424.476710
 20
-14418109.609707
30
7265994.445845
  0
VERTEX
  8
1
  6
CONTINUOUS
 10
-25360706.414705
 20
-14418525.419136
30
7266057.360023
  0
SEQEND
  8
0
  0
POLYLINE
  8
1
  6
HIDDEN
 66
     1
 70
     0
 210
1.000000
 220
0.000000
 230
0.000000
 10
0.000000
 20
0.000000
30
-25379628.400000
  0
VERTEX
  8
1
  6
HIDDEN
 10
2037626.800000
 20
-16013185.900000
30
-25379628.400000
  0
VERTEX
  8
1
  6
HIDDEN
 10
2037109.900000
 20
-16012054.000000
30
-25363878.100000
  0
SEQEND
  8
0
  0
POLYLINE
  8
1
  6
CONTINUOUS
 66
     1
 70
     0
 210
-0.030713
 220
-0.993338
 230
0.111069
 10
0.000000
 20
0.000000
30
-3020683.489701
  0
VERTEX
  8
1
  6
CONTINUOUS
 10
-25251251.029958
 20
-15775828.200150
30
-3020683.489701
  0
VERTEX
  8
1
  6
CONTINUOUS
 10
-25293071.236406
 20
-15776304.244847
30
-3020535.840117
  0
VERTEX
  8
1
  6
CONTINUOUS
 10
-25356343.501664
 20
-15777122.796684
30
-3020697.116449
  0
VERTEX
  8
1
  6
CONTINUOUS
 10
-25408354.380590
 20
-15779537.200331
30
-3020557.878177
  0
VERTEX
  8
1
  6
CONTINUOUS
 10
-25414490.613017
 20
-15779945.699530
30
-3020548.229233
  0
SEQEND
  8
0
  0
POLYLINE
  8
1
  6
CONTINUOUS
 66
     1
 70
     0
 210
-0.626081
 220
0.000911
 230
-0.779758
 10
0.000000
 20
0.000000
30
28350602.045598
  0
VERTEX
  8
1
  6
CONTINUOUS
 10
-1631015.688371
 20
9790865.437823
30
28350602.045598
  0
VERTEX
  8
1
  6
CONTINUOUS
 10
-1798001.380913
 20
9790551.202555
30
28350426.815782
  0
VERTEX
  8
1
  6
CONTINUOUS
 10
-1906235.168108
 20
9789905.498554
30
28350602.045598
  0
VERTEX
  8
1
  6
CONTINUOUS
 10
-1997458.142778
 20
9789095.481008
30
28350426.815782
  0
SEQEND
  8
0
  0
POLYLINE
  8
1
  6
CONTINUOUS
 66
     1
 70
     0
 210
0.053995
 220
0.003745
 230
0.998534
 10
0.000000
 20
0.000000
30
-17317573.011181
  0
VERTEX
  8
1
  6
CONTINUOUS
 10
3415769.815717
 20
24288901.953078
30
-17317573.011181
  0
VERTEX
  8
1
  6
CONTINUOUS
 10
3507670.518359
 20
24281635.467870
30
-17317730.845657
  0
VERTEX
  8
1
  6
CONTINUOUS
 10
3640377.352092
 20
24271735.809666
30
-17317184.227635
  0
VERTEX
  8
1
  6
CONTINUOUS
 10
3748883.134774
 20
24263150.963959
30
-17317120.180907
  0
VERTEX
  8
1
  6
CONTINUOUS
 10
3830752.271971
 20
24256985.288766
30
-17317257.466356
  0
VERTEX
  8
1
  6
CONTINUOUS
 10
3912635.236673
 20
24250894.084485
30
-17316927.297323
  0
VERTEX
  8
1
  6
CONTINUOUS
 10
3913831.823880
 20
24266576.641166
30
-17317697.140636
  0
VERTEX
  8
1
  6
CONTINUOUS
 10
3790393.288071
 20
24276206.719256
30
-17317045.411133
  0
VERTEX
  8
1
  6
CONTINUOUS
 10
3785451.951632
 20
24276597.551487
30
-17317046.366239
  0
SEQEND
  8
0
  0
POLYLINE
  8
1
  6
CONTINUOUS
 66
     1
 70
     0
 210
-0.014621
 220
-0.956362
 230
-0.291817
 10
0.000000
 20
0.000000
30
3101311.939343
  0
VERTEX
  8
1
  6
CONTINUOUS
 10
-25732150.321240
 20
-15812680.024820
30
3101311.939343
  0
VERTEX
  8
1
  6
CONTINUOUS
 10
-25691862.883995
 20
-15811977.818860
30
3100833.015731
  0
VERTEX
  8
1
  6
CONTINUOUS
 10
-25626589.934958
 20
-15809457.920662
30
3100373.540917
  0
VERTEX
  8
1
  6
CONTINUOUS
 10
-25566557.155612
 20
-15809535.331660
30
3100463.180518
  0
VERTEX
  8
1
  6
CONTINUOUS
 10
-25508521.261289
 20
-15807436.394940
30
3101198.498596
  0
VERTEX
  8
1
  6
CONTINUOUS
 10
-25447836.455258
 20
-15804600.379955
30
3100573.706356
  0
VERTEX
  8
1
  6
CONTINUOUS
 10
-25407984.052077
 20
-15802008.264544
30
3100059.655932
  0
SEQEND
  8
0
  0
POLYLINE
  8
1
  6
HIDDEN
 66
     1
 70
     0
 210
1.000000
 220
0.000000
 230
0.000000
 10
0.000000
 20
0.000000
30
-25363968.300000
  0
VERTEX
  8
1
  6
HIDDEN
 10
2034017.900000
 20
-16017814.100000
30
-25363968.300000
  0
VERTEX
  8
1
  6
HIDDEN
 10
2034362.500000
 20
-16018850.500000
30
-25379673.700000
  0
SEQEND
  8
0
  0
POLYLINE
  8
1
  6
HIDDEN
 66
     1
 70
     0
 210
1.000000
 220
0.000000
 230
0.000000
 10
0.000000
 20
0.000000
30
-25372322.900000
  0
VERTEX
  8
1
  6
HIDDEN
 10
2035277.600000
 20
-16027321.400000
30
-25372322.900000
  0
VERTEX
  8
1
  6
HIDDEN
 10
2035368.100000
 20
-16027249.100000
30
-25379718.100000
  0
SEQEND
  8
0
  0
POLYLINE
  8
1
  6
CONTINUOUS
 66
     1
 70
     0
 210
-0.003984
 220
0.348412
 230
0.937333
 10
0.000000
 20
0.000000
30
-14212608.983751
  0
VERTEX
  8
1
  6
CONTINUOUS
 10
25354920.530009
 20
-7764152.392022
30
-14212608.983751
  0
VERTEX
  8
1
  6
CONTINUOUS
 10
25437610.170149
 20
-7765704.366925
30
-14211170.262088
  0
VERTEX
  8
1
  6
CONTINUOUS
 10
25437736.026545
 20
-7761076.955931
30
-14212890.407556
  0
VERTEX
  8
1
  6
CONTINUOUS
 10
25420221.876558
 20
-7760289.322509
30
-14212050.405914
  0
VERTEX
  8
1
  6
CONTINUOUS
 10
25354981.718245
 20
-7758028.672923
30
-14211417.320635
  0
SEQEND
  8
0
  0
POLYLINE
  8
1
  6
CONTINUOUS
 66
     1
 70
     0
 210
-0.000020
 220
0.001584
 230
-0.999999
 10
0.000000
 20
0.000000
30
16049582.836834
  0
VERTEX
  8
1
  6
CONTINUOUS
 10
25438650.876923
 20
1917450.680328
30
16049582.836834
  0
VERTEX
  8
1
  6
CONTINUOUS
 10
25437658.379557
 20
2002264.386689
30
16049582.836834
  0
VERTEX
  8
1
  6
CONTINUOUS
 10
25379626.479569
 20
2002983.087590
30
16049582.836834
  0
SEQEND
  8
0
  0
POLYLINE
  8
1
  6
HIDDEN
 66
     1
 70
     0
 210
1.000000
 220
0.000000
 230
0.000000
 10
0.000000
 20
0.000000
30
-25364576.200000
  0
VERTEX
  8
1
  6
HIDDEN
 10
2028588.600000
 20
-16045892.800000
30
-25364576.200000
  0
VERTEX
  8
1
  6
HIDDEN
 10
2028401.100000
 20
-16045892.800000
30
-25379718.200000
  0
SEQEND
  8
0
  0
POLYLINE
  8
1
  6
CONTINUOUS
 66
     1
 70
     0
 210
0.006224
 220
-0.057135
 230
-0.998347
 10
0.000000
 20
0.000000
30
15723405.912054
  0
VERTEX
  8
1
  6
CONTINUOUS
 10
-24971044.774138
 20
-5679543.868237
30
15723405.912054
  0
VERTEX
  8
1
  6
CONTINUOUS
 10
-24971623.185660
 20
-5675187.023833
30
15723405.912054
  0
VERTEX
  8
1
  6
CONTINUOUS
 10
-24994878.840304
 20
-5677556.840957
30
15723405.912054
  0
SEQEND
  8
0
  0
POLYLINE
  8
1
  6
HIDDEN
 66
     1
 70
     0
 210
-0.008725
 220
0.525325
 230
0.850857
 10
0.000000
 20
0.000000
30
-12346255.656273
  0
VERTEX
  8
1
  6
HIDDEN
 10
25342462.272646
 20
-10504610.440531
30
-12346255.656273
  0
VERTEX
  8
1
  6
HIDDEN
 10
25330753.222174
 20
-10504138.797726
30
-12346255.656273
  0
VERTEX
  8
1
  6
HIDDEN
 10
25326717.800388
 20
-10504093.879364
30
-12346255.656273
  0
SEQEND
  8
0
  0
POLYLINE
  8
1
  6
CONTINUOUS
 66
     1
 70
     0
 210
-0.389334
 220
0.606843
 230
0.692936
 10
0.000000
 20
0.000000
30
-53885.469252
  0
VERTEX
  8
1
  6
CONTINUOUS
 10
20091814.438486
 20
-22164397.572327
30
-53885.469252
  0
VERTEX
  8
1
  6
CONTINUOUS
 10
20071810.777452
 20
-22156140.404229
30
-62427.110608
  0
VERTEX
  8
1
  6
CONTINUOUS
 10
20067357.176072
 20
-22160643.692797
30
-50470.209773
  0
VERTEX
  8
1
  6
CONTINUOUS
 10
20063661.512057
 20
-22193972.682843
30
-59231.088366
  0
VERTEX
  8
1
  6
CONTINUOUS
 10
20066347.718513
 20
-22227457.392278
30
-60508.918658
  0
SEQEND
  8
0
  0
POLYLINE
  8
1
 66
     1
 70
     0
 210
0.173699
 220
0.853674
 230
0.490988
 10
0.000000
 20
0.000000
30
-10478162.303578
  0
VERTEX
  8
1
 10
25113584.346175
 20
-12571476.343427
30
-10478162.303578
  0
VERTEX
  8
1
 10
25109318.573598
 20
-12563761.859807
30
-10478162.303578
  0
VERTEX
  8
1
 10
25094565.535529
 20
-12539480.968565
30
-10478162.303578
  0
SEQEND
  8
0
  0
POLYLINE
  8
1
  6
CONTINUOUS
 66
     1
 70
     0
 210
1.000000
 220
0.000000
 230
0.000000
 10
0.000000
 20
0.000000
30
-25313859.700000
  0
VERTEX
  8
1
  6
CONTINUOUS
 10
2204521.700000
 20
-16246040.600000
30
-25313859.700000
  0
VERTEX
  8
1
  6
CONTINUOUS
 10
2194984.000000
 20
-16238510.400000
30
-25312592.700000
  0
SEQEND
  8
0
  0
POLYLINE
  8
1
 66
     1
 70
     0
 210
-0.989050
 220
-0.146319
 230
-0.019267
 10
0.000000
 20
0.000000
30
25027114.828756
  0
VERTEX
  8
1
 10
-5875416.859114
 20
-15758982.997735
30
25027114.828756
  0
VERTEX
  8
1
 10
-5874911.634697
 20
-15758587.524326
30
25027114.828756
  0
VERTEX
  8
1
 10
-5865385.450332
 20
-15746288.241280
30
25027114.828756
  0
SEQEND
  8
0
  0
POLYLINE
  8
1
  6
CONTINUOUS
 66
     1
 70
     0
 210
0.632196
 220
-0.546011
 230
-0.549728
 10
0.000000
 20
0.000000
30
-8259916.700408
  0
VERTEX
  8
1
  6
CONTINUOUS
 10
-14861324.712521
 20
-24896910.034926
30
-8259916.700408
  0
VERTEX
  8
1
  6
CONTINUOUS
 10
-14861441.535228
 20
-24896333.984628
30
-8259916.700408
  0
VERTEX
  8
1
  6
CONTINUOUS
 10
-14867771.806689
 20
-24883956.804174
30
-8259916.700408
  0
SEQEND
  8
0
  0
POLYLINE
  8
1
 66
     1
 70
     0
 210
0.387224
 220
0.914505
 230
0.117215
 10
0.000000
 20
0.000000
30
-9687168.816130
  0
VERTEX
  8
1
 10
24148209.949984
 20
-15215002.748148
30
-9687168.816130
  0
VERTEX
  8
1
 10
24146810.262218
 20
-15211539.166125
30
-9689282.087020
  0
VERTEX
  8
1
 10
24140383.152632
 20
-15208923.611448
30
-9688796.009663
  0
VERTEX
  8
1
 10
24138787.366092
 20
-15211064.340345
30
-9690143.350216
  0
VERTEX
  8
1
 10
24137570.327642
 20
-15208167.998308
30
-9691197.625207
  0
SEQEND
  8
0
  0
POLYLINE
  8
1
  6
CONTINUOUS
 66
     1
 70
     0
 210
0.202540
 220
-0.809112
 230
-0.551648
 10
0.000000
 20
0.000000
30
2051691.709857
  0
VERTEX
  8
1
  6
CONTINUOUS
 10
-23994451.380781
 20
-18159615.651643
30
2051691.709857
  0
VERTEX
  8
1
  6
CONTINUOUS
 10
-23995916.153635
 20
-18156881.819185
30
2054663.034147
  0
VERTEX
  8
1
  6
CONTINUOUS
 10
-23987185.483412
 20
-18148281.372123
30
2051669.339470
  0
VERTEX
  8
1
  6
CONTINUOUS
 10
-23974923.829255
 20
-18108168.774278
30
2054321.004383
  0
VERTEX
  8
1
  6
CONTINUOUS
 10
-23974386.790185
 20
-18105794.258744
30
2054496.529748
  0
SEQEND
  8
0
  0
POLYLINE
  8
1
 66
     1
 70
     0
 210
1.000000
 220
0.000000
 230
0.000000
 10
0.000000
 20
0.000000
30
-25265895.700000
  0
VERTEX
  8
1
 10
2204740.000000
 20
-16234568.700000
30
-25265895.700000
  0
VERTEX
  8
1
 10
2195828.000000
 20
-16221478.400000
30
-25259817.600000
  0
SEQEND
  8
0
  0
POLYLINE
  8
1
  6
CONTINUOUS
 66
     1
 70
     0
 210
0.370556
 220
0.815290
 230
0.444962
 10
0.000000
 20
0.000000
30
-14809451.085457
  0
VERTEX
  8
1
  6
CONTINUOUS
 10
23924820.442681
 20
-10774578.577203
30
-14809451.085457
  0
VERTEX
  8
1
  6
CONTINUOUS
 10
23917991.029134
 20
-10757852.146047
30
-14809386.012707
  0
VERTEX
  8
1
  6
CONTINUOUS
 10
23902475.599050
 20
-10743994.892438
30
-14809451.085457
  0
VERTEX
  8
1
  6
CONTINUOUS
 10
23901753.748638
 20
-10742979.376033
30
-14809386.012707
  0
SEQEND
  8
0
  0
POLYLINE
  8
1
  6
CONTINUOUS
 66
     1
 70
     0
 210
1.000000
 220
0.000000
 230
0.000000
 10
0.000000
 20
0.000000
30
-25259019.400000
  0
VERTEX
  8
1
  6
CONTINUOUS
 10
2153969.900000
 20
-16190715.800000
30
-25259019.400000
  0
VERTEX
  8
1
  6
CONTINUOUS
 10
2161944.600000
 20
-16202106.000000
30
-25265018.100000
  0
SEQEND
  8
0
  0
POLYLINE
  8
1
 66
     1
 70
     0
 210
1.000000
 220
0.000000
 230
0.000000
 10
0.000000
 20
0.000000
30
-25269268.000000
  0
VERTEX
  8
1
 10
2167594.200000
 20
-16210175.300000
30
-25269268.000000
  0
VERTEX
  8
1
 10
2162150.200000
 20
-16202399.600000
30
-25265172.800000
  0
SEQEND
  8
0
  0
POLYLINE
  8
1
  6
CONTINUOUS
 66
     1
 70
     0
 210
0.413744
 220
-0.702351
 230
-0.579241
 10
0.000000
 20
0.000000
30
-2608326.768524
  0
VERTEX
  8
1
  6
CONTINUOUS
 10
-20699942.971805
 20
-21757414.221850
30
-2608326.768524
  0
VERTEX
  8
1
  6
CONTINUOUS
 10
-20702481.478755
 20
-21747341.434238
30
-2608326.768524
  0
VERTEX
  8
1
  6
CONTINUOUS
 10
-20707909.030707
 20
-21732596.415945
30
-2608326.768524
  0
SEQEND
  8
0
  0
POLYLINE
  8
1
  6
CONTINUOUS
 66
     1
 70
     0
 210
-0.081110
 220
-0.021495
 230
-0.996473
 10
0.000000
 20
0.000000
30
18127801.500371
  0
VERTEX
  8
1
  6
CONTINUOUS
 10
-8541941.423675
 20
22439383.511567
30
18127801.500371
  0
VERTEX
  8
1
  6
CONTINUOUS
 10
-8546465.791499
 20
22437150.622459
30
18127563.199113
  0
VERTEX
  8
1
  6
CONTINUOUS
 10
-8547920.756540
 20
22435311.531828
30
18127408.335587
  0
VERTEX
  8
1
  6
CONTINUOUS
 10
-8546204.571568
 20
22439227.974567
30
18127526.981194
  0
VERTEX
  8
1
  6
CONTINUOUS
 10
-8542204.743160
 20
22443370.005739
30
18127765.277805
  0
VERTEX
  8
1
  6
CONTINUOUS
 10
-8540022.389159
 20
22449501.209330
30
18125899.063267
  0
VERTEX
  8
1
  6
CONTINUOUS
 10
-8540626.688005
 20
22455428.792824
30
18126086.605889
  0
VERTEX
  8
1
  6
CONTINUOUS
 10
-8543697.700818
 20
22455589.629565
30
18126220.774801
  0
VERTEX
  8
1
  6
CONTINUOUS
 10
-8564059.091837
 20
22448120.066847
30
18144671.274783
  0
VERTEX
  8
1
  6
CONTINUOUS
 10
-8564737.896071
 20
22450184.975852
30
18144543.590199
  0
VERTEX
  8
1
  6
CONTINUOUS
 10
-8563149.150104
 20
22453768.215107
30
18145599.281445
  0
VERTEX
  8
1
  6
CONTINUOUS
 10
-8561532.510185
 20
22460353.079584
30
18145279.186006
  0
VERTEX
  8
1
  6
CONTINUOUS
 10
-8563360.030233
 20
22470111.871263
30
18146100.940448
  0
VERTEX
  8
1
  6
CONTINUOUS
 10
-8568590.299827
 20
22471655.311312
30
18143647.397164
  0
VERTEX
  8
1
  6
CONTINUOUS
 10
-8568303.931094
 20
22471322.692408
30
18140613.788826
  0
VERTEX
  8
1
  6
CONTINUOUS
 10
-8574193.244394
 20
22468940.530760
30
18147744.851187
  0
SEQEND
  8
0
  0
POLYLINE
  8
1
 66
     1
 70
     0
 210
1.000000
 220
0.000000
 230
0.000000
 10
0.000000
 20
0.000000
30
-25310829.700000
  0
VERTEX
  8
1
 10
2167547.100000
 20
-16204410.900000
30
-25310829.700000
  0
VERTEX
  8
1
 10
2162739.700000
 20
-16198697.600000
30
-25310991.900000
  0
SEQEND
  8
0
  0
POLYLINE
  8
1
  6
CONTINUOUS
 66
     1
 70
     0
 210
1.000000
 220
0.000000
 230
0.000000
 10
0.000000
 20
0.000000
30
-25259625.600000
  0
VERTEX
  8
1
  6
CONTINUOUS
 10
2195546.400000
 20
-16221064.800000
30
-25259625.600000
  0
VERTEX
  8
1
  6
CONTINUOUS
 10
2167702.800000
 20
-16180167.100000
30
-25240636.200000
  0
SEQEND
  8
0
  0
POLYLINE
  8
1
  6
CONTINUOUS
 66
     1
 70
     0
 210
0.036109
 220
-0.818192
 230
-0.573811
 10
0.000000
 20
0.000000
30
6599352.175368
  0
VERTEX
  8
1
  6
CONTINUOUS
 10
-25081413.773224
 20
-15031201.495535
30
6599352.175368
  0
VERTEX
  8
1
  6
CONTINUOUS
 10
-25114067.472943
 20
-15114404.910193
30
6599352.175368
  0
VERTEX
  8
1
  6
CONTINUOUS
 10
-25116787.447341
 20
-15122060.211407
30
6599352.175368
  0
SEQEND
  8
0
  0
POLYLINE
  8
1
 66
     1
 70
     0
 210
1.000000
 220
0.000000
 230
0.000000
 10
0.000000
 20
0.000000
30
-25240582.100000
  0
VERTEX
  8
1
 10
2167623.500000
 20
-16180050.700000
30
-25240582.100000
  0
VERTEX
  8
1
 10
2161948.200000
 20
-16171714.600000
30
-25236711.500000
  0
SEQEND
  8
0
  0
POLYLINE
  8
1
  6
CONTINUOUS
 66
     1
 70
     0
 210
0.000000
 220
0.000000
 230
-1.000000
 10
0.000000
 20
0.000000
30
16005053.700000
  0
VERTEX
  8
1
  6
CONTINUOUS
 10
25211679.200000
 20
2161541.500000
30
16005053.700000
  0
VERTEX
  8
1
  6
CONTINUOUS
 10
25211930.600000
 20
2160805.500000
30
16005053.700000
  0
VERTEX
  8
1
  6
CONTINUOUS
 10
25199871.800000
 20
2160584.800000
30
16005053.700000
  0
VERTEX
  8
1
  6
CONTINUOUS
 10
25199920.300000
 20
2154735.100000
30
16005053.700000
  0
VERTEX
  8
1
  6
CONTINUOUS
 10
25198852.900000
 20
2154183.500000
30
16005053.700000
  0
SEQEND
  8
0
  0
POLYLINE
  8
1
  6
CONTINUOUS
 66
     1
 70
     0
 210
-0.082826
 220
0.842057
 230
-0.532992
 10
0.000000
 20
0.000000
30
12448389.366168
  0
VERTEX
  8
1
  6
CONTINUOUS
 10
25029621.746709
 20
-11056169.736414
30
12448389.366168
  0
VERTEX
  8
1
  6
CONTINUOUS
 10
24946432.626342
 20
-11071083.453327
30
12448389.366168
  0
VERTEX
  8
1
  6
CONTINUOUS
 10
24865520.744644
 20
-11086453.370094
30
12448389.366168
  0
SEQEND
  8
0
  0
LINE
  8
1
  6
CONTINUOUS
 10
-25183175.200000
 20
2045728.900000
 30
-16017944.600000
 11
-25031594.200000
 21
2044139.000000
 31
-16014595.500000
  0
POLYLINE
  8
1
  6
CONTINUOUS
 66
     1
 70
     0
 210
-0.675618
 220
0.414924
 230
0.609408
 10
0.000000
 20
0.000000
30
8082810.877438
  0
VERTEX
  8
1
  6
CONTINUOUS
 10
11490819.714644
 20
-26329839.700351
30
8082810.877438
  0
VERTEX
  8
1
  6
CONTINUOUS
 10
11489248.502699
 20
-26332568.867983
30
8083008.344681
  0
VERTEX
  8
1
  6
CONTINUOUS
 10
11484409.152914
 20
-26338695.429282
30
8084749.514796
  0
VERTEX
  8
1
  6
CONTINUOUS
 10
11478162.832107
 20
-26343399.933957
30
8087352.525990
  0
VERTEX
  8
1
  6
CONTINUOUS
 10
11470951.000569
 20
-26348013.969182
30
8089739.377900
  0
VERTEX
  8
1
  6
CONTINUOUS
 10
11462285.997639
 20
-26353837.020145
30
8091973.255134
  0
VERTEX
  8
1
  6
CONTINUOUS
 10
11455043.140175
 20
-26360730.862807
30
8092542.869387
  0
VERTEX
  8
1
  6
CONTINUOUS
 10
11449270.917614
 20
-26368762.316702
30
8092406.491463
  0
VERTEX
  8
1
  6
CONTINUOUS
 10
11442853.073889
 20
-26377526.728427
30
8092829.230120
  0
VERTEX
  8
1
  6
CONTINUOUS
 10
11437080.857191
 20
-26389719.446964
30
8089641.672795
  0
VERTEX
  8
1
  6
CONTINUOUS
 10
11437120.371552
 20
-26390383.105912
30
8089190.064806
  0
VERTEX
  8
1
  6
CONTINUOUS
 10
11435900.696401
 20
-26405286.850665
30
8084302.587856
  0
VERTEX
  8
1
  6
CONTINUOUS
 10
11451017.441559
 20
-26422106.120531
30
8096127.772051
  0
SEQEND
  8
0
  0
POLYLINE
  8
1
  6
CONTINUOUS
 66
     1
 70
     0
 210
-0.004612
 220
0.019274
 230
0.999804
 10
0.000000
 20
0.000000
30
-15884187.890417
  0
VERTEX
  8
1
  6
CONTINUOUS
 10
24685437.938288
 20
-8253317.219669
30
-15884187.890417
  0
VERTEX
  8
1
  6
CONTINUOUS
 10
24649165.027283
 20
-8245038.957784
30
-15884178.948149
  0
VERTEX
  8
1
  6
CONTINUOUS
 10
24649629.319643
 20
-8246611.231393
30
-15884187.890417
  0
VERTEX
  8
1
  6
CONTINUOUS
 10
24640672.145288
 20
-8283932.680608
30
-15884178.948149
  0
SEQEND
  8
0
  0
POLYLINE
  8
1
  6
CONTINUOUS
 66
     1
 70
     0
 210
0.542159
 220
-0.017447
 230
0.840095
 10
0.000000
 20
0.000000
30
-27532290.883267
  0
VERTEX
  8
1
  6
CONTINUOUS
 10
1135889.008882
 20
13058322.639017
30
-27532290.883267
  0
VERTEX
  8
1
  6
CONTINUOUS
 10
1142862.153864
 20
13058198.901095
30
-27532509.048698
  0
VERTEX
  8
1
  6
CONTINUOUS
 10
1143653.967801
 20
13057251.551353
30
-27532290.883267
  0
VERTEX
  8
1
  6
CONTINUOUS
 10
1182117.772325
 20
13058772.237176
30
-27532509.048698
  0
SEQEND
  8
0
  0
POLYLINE
  8
1
  6
CONTINUOUS
 66
     1
 70
     0
 210
1.000000
 220
0.000000
 230
0.000000
 10
0.000000
 20
0.000000
30
-25858678.300000
  0
VERTEX
  8
1
  6
CONTINUOUS
 10
1968345.000000
 20
-16046123.200000
30
-25858678.300000
  0
VERTEX
  8
1
  6
CONTINUOUS
 10
2014725.000000
 20
-16045776.800000
30
-25858620.100000
  0
SEQEND
  8
0
  0
POLYLINE
  8
1
  6
CONTINUOUS
 66
     1
 70
     0
 210
1.000000
 220
0.000000
 230
0.000000
 10
0.000000
 20
0.000000
30
-25864895.300000
  0
VERTEX
  8
1
  6
CONTINUOUS
 10
1977743.500000
 20
-16047024.800000
30
-25864895.300000
  0
VERTEX
  8
1
  6
CONTINUOUS
 10
2014724.000000
 20
-16046325.000000
30
-25864850.800000
  0
SEQEND
  8
0
  0
POLYLINE
  8
1
  6
CONTINUOUS
 66
     1
 70
     0
 210
1.000000
 220
0.000000
 230
0.000000
 10
0.000000
 20
0.000000
30
-25903033.600000
  0
VERTEX
  8
1
  6
CONTINUOUS
 10
1980559.000000
 20
-16046574.000000
30
-25903033.600000
  0
VERTEX
  8
1
  6
CONTINUOUS
 10
2014492.300000
 20
-16046574.000000
30
-25903257.400000
  0
SEQEND
  8
0
  0
LINE
  8
1
  62
4
  6
CONTINUOUS
 10
-25225525.100000
 20
1725873.400000
 30
-16022152.700000
 11
-25225534.900000
 21
1725903.600000
 31
-16022152.700000
  0
LINE
  8
1
  62
4
  6
CONTINUOUS
 10
-25243708.700000
 20
1896021.300000
 30
-16021802.100000
 11
-25243718.900000
 21
1896001.400000
 31
-16021792.100000
  0
LINE
  8
1
  62
4
  6
CONTINUOUS
 10
-25223819.900000
 20
2008649.100000
 30
-16021641.800000
 11
-25223819.400000
 21
2008699.200000
 31
-16021621.800000
  0
LINE
  8
1
  62
4
  6
CONTINUOUS
 10
-25632850.900000
 20
2017837.400000
 30
-16034132.900000
 11
-25632860.500000
 21
2017877.600000
 31
-16034153.000000
  0
LINE
  8
1
  62
4
  6
CONTINUOUS
 10
-25620773.500000
 20
1875188.300000
 30
-16030436.700000
 11
-25620713.400000
 21
1875187.700000
 31
-16030406.600000
  0
LINE
  8
1
  62
4
  6
CONTINUOUS
 10
-25623487.700000
 20
1716939.700000
 30
-16028553.500000
 11
-25623488.100000
 21
1716899.600000
 31
-16028533.500000
  0
LINE
  8
1
  62
4
  6
CONTINUOUS
 10
-26100431.400000
 20
1728680.300000
 30
-16051592.500000
 11
-26100431.300000
 21
1728690.300000
 31
-16051592.500000
  0
LINE
  8
1
  62
4
  6
CONTINUOUS
 10
-26100020.900000
 20
1881963.300000
 30
-16048827.800000
 11
-26100021.100000
 21
1881943.200000
 31
-16048647.500000
  0
LINE
  8
1
  62
4
  6
CONTINUOUS
 10
-26104198.100000
 20
2025244.600000
 30
-16048046.500000
 11
-26104198.000000
 21
2025254.600000
 31
-16048046.500000
  0
LINE
  8
1
  6
CONTINUOUS
 10
-25583555.400000
 20
1862494.800000
 30
-16028333.100000
 11
-25578567.800000
 21
1862384.800000
 31
-16028343.100000
  0
LINE
  8
1
  6
CONTINUOUS
 10
-26092972.200000
 20
2530873.500000
 30
-16453512.700000
 11
-26093874.800000
 21
2529965.600000
 31
-16228672.200000
  0
LINE
  8
1
  6
CONTINUOUS
 10
-26044413.000000
 20
2527322.600000
 30
-16453392.500000
 11
-26043959.800000
 21
2526530.500000
 31
-16228672.200000
  0
LINE
  8
1
  6
CONTINUOUS
 10
-25335110.500000
 20
2523987.700000
 30
-16417401.600000
 11
-25335705.200000
 21
2523266.200000
 31
-16228672.200000
  0
LINE
  8
1
  6
CONTINUOUS
 10
-25286796.300000
 20
2524997.200000
 30
-16417181.200000
 11
-25285847.600000
 21
2524181.800000
 31
-16228672.200000
  0
LINE
  8
1
  6
CONTINUOUS
 10
-25284753.700000
 20
2508868.700000
 30
-16412613.500000
 11
-25284732.900000
 21
2508389.800000
 31
-16228672.200000
  0
POLYLINE
  8
1
  6
CONTINUOUS
 66
     1
 70
     0
 210
-0.316324
 220
0.142548
 230
-0.937880
 10
0.000000
 20
0.000000
30
23744381.486050
  0
VERTEX
  8
1
  6
CONTINUOUS
 10
8726437.140481
 20
17590383.699194
30
23744381.486050
  0
VERTEX
  8
1
  6
CONTINUOUS
 10
8716900.444692
 20
17593701.961849
30
23745826.234865
  0
VERTEX
  8
1
  6
CONTINUOUS
 10
8704098.641595
 20
17598255.357525
30
23747937.849863
  0
VERTEX
  8
1
  6
CONTINUOUS
 10
8694077.074990
 20
17602439.633283
30
23749549.860028
  0
VERTEX
  8
1
  6
CONTINUOUS
 10
8685292.454009
 20
17605204.986535
30
23749398.097003
  0
VERTEX
  8
1
  6
CONTINUOUS
 10
8680300.078851
 20
17605911.375696
30
23749039.936297
  0
VERTEX
  8
1
  6
CONTINUOUS
 10
8677364.620220
 20
17606112.922757
30
23748612.513490
  0
VERTEX
  8
1
  6
CONTINUOUS
 10
8676505.233592
 20
17606563.357113
30
23748576.242650
  0
VERTEX
  8
1
  6
CONTINUOUS
 10
8672629.306426
 20
17598814.227067
30
23743338.440642
  0
VERTEX
  8
1
  6
CONTINUOUS
 10
8672823.481647
 20
17595273.656463
30
23742039.305549
  0
VERTEX
  8
1
  6
CONTINUOUS
 10
8671216.014453
 20
17591995.505861
30
23741488.825731
  0
VERTEX
  8
1
  6
CONTINUOUS
 10
8669904.267898
 20
17589825.077159
30
23742330.670963
  0
VERTEX
  8
1
  6
CONTINUOUS
 10
8669135.451787
 20
17587656.466283
30
23743931.494434
  0
VERTEX
  8
1
  6
CONTINUOUS
 10
8669910.027200
 20
17586684.221037
30
23745611.741619
  0
VERTEX
  8
1
  6
CONTINUOUS
 10
8680005.922145
 20
17579360.954904
30
23750026.512238
  0
VERTEX
  8
1
  6
CONTINUOUS
 10
8694370.325506
 20
17573661.039882
30
23748345.021110
  0
VERTEX
  8
1
  6
CONTINUOUS
 10
8704447.731353
 20
17569547.271637
30
23747196.996849
  0
VERTEX
  8
1
  6
CONTINUOUS
 10
8715790.250487
 20
17564356.029565
30
23745477.855611
  0
SEQEND
  8
0
  0
POLYLINE
  8
1
  6
CONTINUOUS
 66
     1
 70
     0
 210
-0.948065
 220
-0.208942
 230
-0.239825
 10
0.000000
 20
0.000000
30
28197415.708019
  0
VERTEX
  8
1
  6
CONTINUOUS
 10
-7916798.806311
 20
-9951779.110765
30
28197415.708019
  0
VERTEX
  8
1
  6
CONTINUOUS
 10
-7895329.326948
 20
-9931360.191522
30
28199938.025516
  0
VERTEX
  8
1
  6
CONTINUOUS
 10
-7868405.490345
 20
-9903103.974067
30
28198831.763411
  0
VERTEX
  8
1
  6
CONTINUOUS
 10
-7839728.742682
 20
-9869958.659087
30
28198512.384972
  0
VERTEX
  8
1
  6
CONTINUOUS
 10
-7824914.026348
 20
-9853784.797690
30
28200639.954753
  0
SEQEND
  8
0
  0
POLYLINE
  8
1
 66
     1
 70
     0
 210
0.145251
 220
0.824161
 230
0.547413
 10
0.000000
 20
0.000000
30
-10872959.294118
  0
VERTEX
  8
1
 10
26092947.092841
 20
-12254493.361754
30
-10872959.294118
  0
VERTEX
  8
1
 10
26094714.336268
 20
-12284118.174640
30
-10872959.294118
  0
VERTEX
  8
1
 10
26105455.823429
 20
-12373438.803591
30
-10872959.294118
  0
SEQEND
  8
0
  0
POLYLINE
  8
1
 66
     1
 70
     0
 210
-0.830126
 220
0.452384
 230
0.325945
 10
0.000000
 20
0.000000
30
17375437.829892
  0
VERTEX
  8
1
 10
10513487.174326
 20
-23262384.061843
30
17375437.829892
  0
VERTEX
  8
1
 10
10518612.506412
 20
-23256922.393763
30
17375437.829892
  0
VERTEX
  8
1
 10
10528106.412368
 20
-23239431.812679
30
17375437.829892
  0
SEQEND
  8
0
  0
POLYLINE
  8
1
  6
CONTINUOUS
 66
     1
 70
     0
 210
-0.013433
 220
-0.753373
 230
-0.657457
 10
0.000000
 20
0.000000
30
9313574.810188
  0
VERTEX
  8
1
  6
CONTINUOUS
 10
-26183072.268084
 20
-13309875.497864
30
9313574.810188
  0
VERTEX
  8
1
  6
CONTINUOUS
 10
-26170329.678376
 20
-13324265.535748
30
9314179.895703
  0
VERTEX
  8
1
  6
CONTINUOUS
 10
-26161000.837799
 20
-13321797.618497
30
9314189.716263
  0
VERTEX
  8
1
  6
CONTINUOUS
 10
-26149860.889397
 20
-13322625.701769
30
9313347.296824
  0
VERTEX
  8
1
  6
CONTINUOUS
 10
-26147551.995489
 20
-13323656.348468
30
9313385.041770
  0
VERTEX
  8
1
  6
CONTINUOUS
 10
-26137466.515968
 20
-13311126.220782
30
9314152.779666
  0
SEQEND
  8
0
  0
POLYLINE
  8
1
  6
CONTINUOUS
 66
     1
 70
     0
 210
0.327864
 220
-0.002560
 230
-0.944722
 10
0.000000
 20
0.000000
30
6685380.298264
  0
VERTEX
  8
1
  6
CONTINUOUS
 10
1876692.465977
 20
-30018465.016257
30
6685380.298264
  0
VERTEX
  8
1
  6
CONTINUOUS
 10
1920995.477757
 20
-30017553.284731
30
6685707.307405
  0
VERTEX
  8
1
  6
CONTINUOUS
 10
1944713.783991
 20
-30016608.872044
30
6685558.001939
  0
VERTEX
  8
1
  6
CONTINUOUS
 10
1977125.975987
 20
-30015234.227421
30
6685388.226584
  0
VERTEX
  8
1
  6
CONTINUOUS
 10
1989306.417857
 20
-30012988.867728
30
6685704.609674
  0
SEQEND
  8
0
  0
LINE
  8
1
  6
CONTINUOUS
 10
-26124584.300000
 20
2137403.400000
 30
-16154486.600000
 11
-26124391.700000
 21
2139018.400000
 31
-16228672.200000
  0
POLYLINE
  8
1
  6
CONTINUOUS
 66
     1
 70
     0
 210
0.047900
 220
0.124621
 230
0.991048
 10
0.000000
 20
0.000000
30
-16888273.044757
  0
VERTEX
  8
1
  6
CONTINUOUS
 10
24973601.137068
 20
5185186.683308
30
-16888273.044757
  0
VERTEX
  8
1
  6
CONTINUOUS
 10
24991878.188996
 20
5192694.151348
30
-16888243.396289
  0
VERTEX
  8
1
  6
CONTINUOUS
 10
25008600.151176
 20
5199352.137078
30
-16887533.241824
  0
VERTEX
  8
1
  6
CONTINUOUS
 10
25023916.955612
 20
5205077.725146
30
-16886535.731040
  0
VERTEX
  8
1
  6
CONTINUOUS
 10
25029609.232474
 20
5206796.295464
30
-16884634.556036
  0
VERTEX
  8
1
  6
CONTINUOUS
 10
25046949.541620
 20
5217331.982250
30
-16886094.337027
  0
VERTEX
  8
1
  6
CONTINUOUS
 10
25061826.324031
 20
5226962.063287
30
-16883631.695952
  0
VERTEX
  8
1
  6
CONTINUOUS
 10
25076342.044633
 20
5232430.803799
30
-16883024.084174
  0
VERTEX
  8
1
  6
CONTINUOUS
 10
25091365.341940
 20
5239535.074253
30
-16884344.995882
  0
VERTEX
  8
1
  6
CONTINUOUS
 10
25116572.775390
 20
5248436.462179
30
-16885079.287844
  0
VERTEX
  8
1
  6
CONTINUOUS
 10
25133137.236552
 20
5255244.167697
30
-16886420.890605
  0
VERTEX
  8
1
  6
CONTINUOUS
 10
25133169.893965
 20
5260951.328819
30
-16886987.522550
  0
VERTEX
  8
1
  6
CONTINUOUS
 10
25131954.532345
 20
5263867.232520
30
-16886531.338914
  0
VERTEX
  8
1
  6
CONTINUOUS
 10
25128405.956438
 20
5268156.310055
30
-16883100.657767
  0
SEQEND
  8
0
  0
POLYLINE
  8
1
  6
CONTINUOUS
 66
     1
 70
     0
 210
0.975683
 220
-0.013192
 230
0.218790
 10
0.000000
 20
0.000000
30
-29030809.855480
  0
VERTEX
  8
1
  6
CONTINUOUS
 10
1514464.688649
 20
-9941310.151202
30
-29030809.855480
  0
VERTEX
  8
1
  6
CONTINUOUS
 10
1530982.865907
 20
-9941260.694905
30
-29030755.730766
  0
VERTEX
  8
1
  6
CONTINUOUS
 10
1533440.054204
 20
-9941449.457832
30
-29029913.873814
  0
VERTEX
  8
1
  6
CONTINUOUS
 10
1541603.068072
 20
-9940957.369470
30
-29030048.551430
  0
VERTEX
  8
1
  6
CONTINUOUS
 10
1572482.173164
 20
-9940344.339987
30
-29030905.433981
  0
VERTEX
  8
1
  6
CONTINUOUS
 10
1629609.785407
 20
-9939501.766611
30
-29030542.800507
  0
VERTEX
  8
1
  6
CONTINUOUS
 10
1668969.791116
 20
-9938174.510102
30
-29029319.707009
  0
VERTEX
  8
1
  6
CONTINUOUS
 10
1670532.613160
 20
-9937309.955910
30
-29031985.316708
  0
VERTEX
  8
1
  6
CONTINUOUS
 10
1676612.702134
 20
-9936746.903479
30
-29031932.347220
  0
VERTEX
  8
1
  6
CONTINUOUS
 10
1677911.800948
 20
-9936940.874743
30
-29029968.489526
  0
VERTEX
  8
1
  6
CONTINUOUS
 10
1684845.286377
 20
-9936539.589469
30
-29030147.487728
  0
SEQEND
  8
0
  0
POLYLINE
  8
1
  6
CONTINUOUS
 66
     1
 70
     0
 210
-0.039748
 220
-0.965129
 230
-0.258738
 10
0.000000
 20
0.000000
30
3180192.779840
  0
VERTEX
  8
1
  6
CONTINUOUS
 10
-25442399.095084
 20
-15723697.251372
30
3180192.779840
  0
VERTEX
  8
1
  6
CONTINUOUS
 10
-25458073.586079
 20
-15723994.005551
30
3179436.614359
  0
VERTEX
  8
1
  6
CONTINUOUS
 10
-25499068.319965
 20
-15723956.357649
30
3179577.165252
  0
VERTEX
  8
1
  6
CONTINUOUS
 10
-25538140.806871
 20
-15723772.439230
30
3180612.402648
  0
VERTEX
  8
1
  6
CONTINUOUS
 10
-25581428.771444
 20
-15723507.137647
30
3182415.643406
  0
VERTEX
  8
1
  6
CONTINUOUS
 10
-25624914.030329
 20
-15723978.773617
30
3183519.942473
  0
VERTEX
  8
1
  6
CONTINUOUS
 10
-25643577.849704
 20
-15725599.646395
30
3184514.855394
  0
VERTEX
  8
1
  6
CONTINUOUS
 10
-25683607.157750
 20
-15726365.253698
30
3187308.657673
  0
VERTEX
  8
1
  6
CONTINUOUS
 10
-25722624.679085
 20
-15729161.752996
30
3190302.527079
  0
VERTEX
  8
1
  6
CONTINUOUS
 10
-25755976.505224
 20
-15730124.918161
30
3191585.031793
  0
VERTEX
  8
1
  6
CONTINUOUS
 10
-25765033.085371
 20
-15730605.762802
30
3192151.354423
  0
VERTEX
  8
1
  6
CONTINUOUS
 10
-25770574.574325
 20
-15730287.394466
30
3193417.216986
  0
VERTEX
  8
1
  6
CONTINUOUS
 10
-25777367.206303
 20
-15729757.335412
30
3195009.208776
  0
VERTEX
  8
1
  6
CONTINUOUS
 10
-25780336.515047
 20
-15730539.107166
30
3192129.269723
  0
VERTEX
  8
1
  6
CONTINUOUS
 10
-25812429.393037
 20
-15732591.850344
30
3193911.989880
  0
VERTEX
  8
1
  6
CONTINUOUS
 10
-25855248.952842
 20
-15733871.779836
30
3196373.378189
  0
VERTEX
  8
1
  6
CONTINUOUS
 10
-25932322.512871
 20
-15734224.187055
30
3201600.641808
  0
VERTEX
  8
1
  6
CONTINUOUS
 10
-25984422.086031
 20
-15735359.288580
30
3205028.242841
  0
VERTEX
  8
1
  6
CONTINUOUS
 10
-26020968.891826
 20
-15734096.590042
30
3208774.501396
  0
VERTEX
  8
1
  6
CONTINUOUS
 10
-26044538.167566
 20
-15732949.382860
30
3211199.120972
  0
VERTEX
  8
1
  6
CONTINUOUS
 10
-26060620.999246
 20
-15732577.262816
30
3211504.249447
  0
VERTEX
  8
1
  6
CONTINUOUS
 10
-26142537.211388
 20
-15731201.862060
30
3215864.891111
  0
VERTEX
  8
1
  6
CONTINUOUS
 10
-26220288.124562
 20
-15730569.285435
30
3219968.403875
  0
VERTEX
  8
1
  6
CONTINUOUS
 10
-26219559.145717
 20
-15738616.897940
30
3213385.415906
  0
VERTEX
  8
1
  6
CONTINUOUS
 10
-26201397.495171
 20
-15736829.643498
30
3212820.342558
  0
SEQEND
  8
0
  0
POLYLINE
  8
1
  6
CONTINUOUS
 66
     1
 70
     0
 210
0.000000
 220
0.000000
 230
-1.000000
 10
0.000000
 20
0.000000
30
16039952.800000
  0
VERTEX
  8
1
  6
CONTINUOUS
 10
25949353.500000
 20
2038176.300000
30
16039952.800000
  0
VERTEX
  8
1
  6
CONTINUOUS
 10
25949343.200000
 20
2035777.400000
30
16039952.800000
  0
VERTEX
  8
1
  6
CONTINUOUS
 10
25949661.800000
 20
2035970.900000
30
16039952.800000
  0
VERTEX
  8
1
  6
CONTINUOUS
 10
25949705.800000
 20
2031573.700000
30
16039952.800000
  0
VERTEX
  8
1
  6
CONTINUOUS
 10
25949396.000000
 20
2031500.500000
30
16039952.800000
  0
VERTEX
  8
1
  6
CONTINUOUS
 10
25949435.500000
 20
2030559.200000
30
16039952.800000
  0
VERTEX
  8
1
  6
CONTINUOUS
 10
25949470.500000
 20
2030058.700000
30
16039952.800000
  0
VERTEX
  8
1
  6
CONTINUOUS
 10
25962327.900000
 20
2031342.900000
30
16039952.800000
  0
SEQEND
  8
0
  0
LINE
  8
1
  6
CONTINUOUS
 10
-25914460.800000
 20
1980833.500000
 30
-16047074.800000
 11
-25915366.100000
 21
2014378.500000
 31
-16047055.000000
  0
LINE
  8
1
  6
CONTINUOUS
 10
-25915382.300000
 20
2014417.700000
 30
-16228672.200000
 11
-25914602.600000
 21
2014417.700000
 31
-16228672.200000
  0
LINE
  8
1
  6
CONTINUOUS
 10
-25363051.700000
 20
2163027.500000
 30
-15981106.200000
 11
-25198789.300000
 21
2161425.500000
 31
-16005449.900000
  0
LINE
  8
1
  6
CONTINUOUS
 10
-25378801.900000
 20
2163085.500000
 30
-16228672.200000
 11
-25379779.500000
 21
2163141.700000
 31
-15988996.600000
  0
POLYLINE
  8
1
  6
CONTINUOUS
 66
     1
 70
     0
 210
-0.000562
 220
-0.997941
 230
0.064139
 10
0.000000
 20
0.000000
30
-2683479.886214
  0
VERTEX
  8
1
  6
CONTINUOUS
 10
-25545743.617137
 20
-15885720.280117
30
-2683479.886214
  0
VERTEX
  8
1
  6
CONTINUOUS
 10
-25602932.836740
 20
-15885429.180727
30
-2683479.886214
  0
VERTEX
  8
1
  6
CONTINUOUS
 10
-25635630.310979
 20
-15886285.544027
30
-2683479.886214
  0
SEQEND
  8
0
  0
POLYLINE
  8
1
  6
CONTINUOUS
 66
     1
 70
     0
 210
0.999937
 220
-0.008167
 230
-0.007718
 10
0.000000
 20
0.000000
30
-25527583.881184
  0
VERTEX
  8
1
  6
CONTINUOUS
 10
1564648.001142
 20
-16247752.811207
30
-25527583.881184
  0
VERTEX
  8
1
  6
CONTINUOUS
 10
1536863.521523
 20
-16247752.199696
30
-25527504.654507
  0
VERTEX
  8
1
  6
CONTINUOUS
 10
1493560.330112
 20
-16247752.811207
30
-25527583.881184
  0
VERTEX
  8
1
  6
CONTINUOUS
 10
1461001.551071
 20
-16251562.313185
30
-25527504.654507
  0
SEQEND
  8
0
  0
POLYLINE
  8
1
  6
CONTINUOUS
 66
     1
 70
     0
 210
0.979053
 220
-0.009349
 230
0.203391
 10
0.000000
 20
0.000000
30
-28392035.754815
  0
VERTEX
  8
1
  6
CONTINUOUS
 10
1489861.703681
 20
-10506057.734442
30
-28392035.754815
  0
VERTEX
  8
1
  6
CONTINUOUS
 10
1478342.637684
 20
-10506044.085487
30
-28392101.459245
  0
VERTEX
  8
1
  6
CONTINUOUS
 10
1436171.225626
 20
-10506866.029680
30
-28392035.754815
  0
VERTEX
  8
1
  6
CONTINUOUS
 10
1425176.577442
 20
-10507158.172480
30
-28392101.459245
  0
SEQEND
  8
0
  0
POLYLINE
  8
1
  6
CONTINUOUS
 66
     1
 70
     0
 210
0.001987
 220
-0.045434
 230
0.998965
 10
0.000000
 20
0.000000
30
-16163377.355463
  0
VERTEX
  8
1
  6
CONTINUOUS
 10
-25537529.199589
 20
2056402.423459
30
-16163377.355463
  0
VERTEX
  8
1
  6
CONTINUOUS
 10
-25573729.697527
 20
2056628.911419
30
-16163377.355463
  0
VERTEX
  8
1
  6
CONTINUOUS
 10
-25600222.708759
 20
2056628.911419
30
-16163377.355463
  0
SEQEND
  8
0
  0
POLYLINE
  8
1
  6
DASHED
 66
     1
 70
     0
 210
0.000686
 220
0.119854
 230
-0.992791
 10
0.000000
 20
0.000000
30
16117958.724736
  0
VERTEX
  8
1
  6
DASHED
 10
25644739.755335
 20
-414747.184372
30
16117958.724736
  0
VERTEX
  8
1
  6
DASHED
 10
25684432.066037
 20
-416355.989035
30
16117959.908036
  0
VERTEX
  8
1
  6
DASHED
 10
25715544.692972
 20
-416282.357219
30
16117958.724736
  0
VERTEX
  8
1
  6
DASHED
 10
25715514.548975
 20
-416272.555728
30
16117959.908036
  0
SEQEND
  8
0
  0
POLYLINE
  8
1
  6
CONTINUOUS
 66
     1
 70
     0
 210
-0.058070
 220
0.004850
 230
0.998301
 10
0.000000
 20
0.000000
30
-14502389.205409
  0
VERTEX
  8
1
  6
CONTINUOUS
 10
475417.871874
 20
-26575848.559033
30
-14502389.205409
  0
VERTEX
  8
1
  6
CONTINUOUS
 10
466735.696299
 20
-26575244.150905
30
-14502479.078235
  0
VERTEX
  8
1
  6
CONTINUOUS
 10
276154.505581
 20
-26589015.648855
30
-14503160.242109
  0
VERTEX
  8
1
  6
CONTINUOUS
 10
281839.906600
 20
-26676909.846708
30
-14502414.598802
  0
VERTEX
  8
1
  6
CONTINUOUS
 10
449302.712341
 20
-26664220.514372
30
-14503195.459265
  0
SEQEND
  8
0
  0
LINE
  8
1
  6
CONTINUOUS
 10
-25669449.400000
 20
1680705.300000
 30
-16062380.800000
 11
-25646694.400000
 21
1681382.000000
 31
-16062624.600000
  0
POLYLINE
  8
1
  6
CONTINUOUS
 66
     1
 70
     0
 210
-0.031530
 220
0.164300
 230
0.985906
 10
0.000000
 20
0.000000
30
-14709145.838245
  0
VERTEX
  8
1
  6
CONTINUOUS
 10
25170700.894453
 20
-9190372.678513
30
-14709145.838245
  0
VERTEX
  8
1
  6
CONTINUOUS
 10
25165634.691002
 20
-9189443.173530
30
-14709303.565546
  0
VERTEX
  8
1
  6
CONTINUOUS
 10
25160063.082933
 20
-9188704.859922
30
-14709428.849665
  0
VERTEX
  8
1
  6
CONTINUOUS
 10
25155690.609375
 20
-9188497.801944
30
-14709463.985244
  0
VERTEX
  8
1
  6
CONTINUOUS
 10
25151480.946809
 20
-9190136.892885
30
-14709185.848607
  0
VERTEX
  8
1
  6
CONTINUOUS
 10
25146844.261495
 20
-9189474.071657
30
-14709298.322456
  0
VERTEX
  8
1
  6
CONTINUOUS
 10
25142538.221769
 20
-9189441.511297
30
-14709303.847610
  0
VERTEX
  8
1
  6
CONTINUOUS
 10
25139463.893659
 20
-9191125.646867
30
-14709018.067369
  0
VERTEX
  8
1
  6
CONTINUOUS
 10
25135087.139177
 20
-9192832.208831
30
-14708728.481603
  0
VERTEX
  8
1
  6
CONTINUOUS
 10
25132191.543738
 20
-9192798.763178
30
-14708734.156982
  0
VERTEX
  8
1
  6
CONTINUOUS
 10
25128550.879699
 20
-9192113.067450
30
-14708850.512395
  0
VERTEX
  8
1
  6
CONTINUOUS
 10
25124469.128879
 20
-9191080.608903
30
-14709289.933716
  0
VERTEX
  8
1
  6
CONTINUOUS
 10
25121222.181367
 20
-9190112.146043
30
-14709708.251255
  0
VERTEX
  8
1
  6
CONTINUOUS
 10
25120309.395225
 20
-9190702.506919
30
-14709770.563247
  0
VERTEX
  8
1
  6
CONTINUOUS
 10
25119292.129350
 20
-9193126.199798
30
-14709095.165400
  0
VERTEX
  8
1
  6
CONTINUOUS
 10
25118444.325199
 20
-9194527.205527
30
-14708908.245525
  0
VERTEX
  8
1
  6
CONTINUOUS
 10
25117117.695370
 20
-9195527.958379
30
-14709244.155741
  0
SEQEND
  8
0
  0
INSERT
  8
0
  2
UELOGO
 10
-24894838.500000
 20
1810179.700000
30
-16228672.200000
 41
0.400004
 43
0.400004
 42
0.400004
  0
TEXT
  8
1
  6
CONTINUOUS
 10
-25125530.600000
 20
1697232.700000
30
-16228672.200000
 40
0.100200
  1
PREPARED BY:
  7
GREEN
  0
TEXT
  8
1
  6
CONTINUOUS
 10
-25115935.500000
 20
1803061.200000
30
-16228672.200000
 40
9999.999600
  1
PREPARED BY:
  7
GREEN
  0
TEXT
  8
1
  6
CONTINUOUS
 10
-25115994.300000
 20
1778533.200000
30
-16228672.200000
 40
9999.999600
  1
SCHOOL OF SURVEYING
  7
GREEN
  0
TEXT
  8
1
  6
CONTINUOUS
 10
-25116221.900000
 20
1760805.000000
30
-16228672.200000
 40
9999.999600
  1
UNIVERSITY OF EAST LONDON
  7
GREEN
  0
TEXT
  8
1
  6
CONTINUOUS
 10
-25116007.200000
 20
1743152.900000
30
-16228672.200000
 40
9999.999600
  1
LONGBRIDGE ROAD
  7
GREEN
  0
TEXT
  8
1
  6
CONTINUOUS
 10
-25116000.700000
 20
1726611.500000
30
-16228672.200000
 40
9999.999600
  1
DAGENHAM
  7
GREEN
  0
TEXT
  8
1
  6
CONTINUOUS
 10
-25116035.700000
 20
1708917.400000
30
-16228672.200000
 40
9999.999600
  1
ESSEX    RM82AS
  7
GREEN
  0
TEXT
  8
1
  6
CONTINUOUS
 10
-25117198.600000
 20
1691866.600000
30
-16228672.200000
 40
9999.999600
  1
Tel:  0181 590 7722
  7
GREEN
  0
TEXT
  8
1
  6
CONTINUOUS
 10
-25116022.900000
 20
1674857.900000
30
-16228672.200000
 40
9999.999600
  1
Fax:  0181 849 3618
  7
GREEN
  0
ENDSEC
  0
EOF
