  0
SECTION
  2
HEADER
  9
$ACADVER
  1
AC1006
  9
$INSBASE
 10
0.0
 20
0.0
 30
0.0
  9
$EXTMIN
 10
376.542815
 20
24.925146
  9
$EXTMAX
 10
389.455385
 20
38.315964
  9
$LIMMIN
 10
375.542815
 20
23.925146
  9
$LIMMAX
 10
390.455385
 20
37.315964
  9
$ORTHOMODE
 70
     0
  9
$REGENMODE
 70
     1
  9
$FILLMODE
 70
     1
  9
$QTEXTMODE
 70
     0
  9
$MIRRTEXT
 70
     1
  9
$DRAGMODE
 70
     2
  9
$LTSCALE
 40
1.0
  9
$OSMODE
 70
     0
  9
$ATTMODE
 70
     1
  9
$TEXTSIZE
 40
0.2
  9
$TRACEWID
 40
0.05
  9
$TEXTSTYLE
  7
STANDARD
  9
$CLAYER
  8
0
  9
$CELTYPE
  6
BYLAYER
  9
$CECOLOR
 62
   256
  9
$DIMSCALE
 40
1.0
  9
$DIMASZ
 40
0.18
  9
$DIMEXO
 40
0.0625
  9
$DIMDLI
 40
0.38
  9
$DIMRND
 40
0.0
  9
$DIMDLE
 40
0.0
  9
$DIMEXE
 40
0.18
  9
$DIMTP
 40
0.0
  9
$DIMTM
 40
0.0
  9
$DIMTXT
 40
0.18
  9
$DIMCEN
 40
0.09
  9
$DIMTSZ
 40
0.0
  9
$DIMTOL
 70
     0
  9
$DIMLIM
 70
     0
  9
$DIMTIH
 70
     1
  9
$DIMTOH
 70
     1
  9
$DIMSE1
 70
     0
  9
$DIMSE2
 70
     0
  9
$DIMTAD
 70
     0
  9
$DIMZIN
 70
     0
  9
$DIMBLK
  1

  9
$DIMASO
 70
     1
  9
$DIMSHO
 70
     0
  9
$DIMPOST
  1

  9
$DIMAPOST
  1

  9
$DIMALT
 70
     0
  9
$DIMALTD
 70
     2
  9
$DIMALTF
 40
25.4
  9
$DIMLFAC
 40
1.0
  9
$DIMTOFL
 70
     0
  9
$DIMTVP
 40
0.0
  9
$DIMTIX
 70
     0
  9
$DIMSOXD
 70
     0
  9
$DIMSAH
 70
     0
  9
$DIMBLK1
  1

  9
$DIMBLK2
  1

  9
$LUNITS
 70
     2
  9
$LUPREC
 70
     4
  9
$AXISMODE
 70
     0
  9
$AXISUNIT
 10
0.0
 20
0.0
  9
$SKETCHINC
 40
0.1
  9
$FILLETRAD
 40
0.0
  9
$AUNITS
 70
     0
  9
$AUPREC
 70
     0
  9
$MENU
  1
acad
  9
$ELEVATION
 40
0.0
  9
$THICKNESS
 40
0.0
  9
$LIMCHECK
 70
     0
  9
$BLIPMODE
 70
     1
  9
$CHAMFERA
 40
0.0
  9
$CHAMFERB
 40
0.0
  9
$SKPOLY
 70
     0
  9
$TDCREATE
 40
2447847.4728913195
  9
$TDUPDATE
 40
2447847.4728913195
  9
$TDINDWG
 40
0.0000000000
  9
$TDUSRTIMER
 40
0.0000000000
  9
$USRTIMER
 70
     1
  9
$ANGBASE
 50
0.0
  9
$ANGDIR
 70
     0
  9
$PDMODE
 70
     0
  9
$PDSIZE
 40
0.0
  9
$PLINEWID
 40
0.0
  9
$COORDS
 70
     0
  9
$SPLFRAME
 70
     0
  9
$SPLINETYPE
 70
     6
  9
$SPLINESEGS
 70
     8
  9
$ATTDIA
 70
     0
  9
$ATTREQ
 70
     1
  9
$HANDLING
 70
     0
  9
$HANDSEED
  5
0
  9
$SURFTAB1
 70
     6
  9
$SURFTAB2
 70
     6
  9
$SURFTYPE
 70
     6
  9
$SURFU
 70
     6
  9
$SURFV
 70
     6
  9
$FLATLAND
 70
     0
  9
$UCSNAME
  2

  9
$UCSORG
 10
0.0
 20
0.0
 30
0.0
  9
$UCSXDIR
 10
1.0
 20
0.0
 30
0.0
  9
$UCSYDIR
 10
0.0
 20
1.0
 30
0.0
  9
$USERI1
 70
     0
  9
$USERI2
 70
     0
  9
$USERI3
 70
     0
  9
$USERI4
 70
     0
  9
$USERI5
 70
     0
  9
$USERR1
 40
0.0
  9
$USERR2
 40
0.0
  9
$USERR3
 40
0.0
  9
$USERR4
 40
0.0
  9
$USERR5
 40
0.0
  9
$WORLDVIEW
 70
     1
  0
ENDSEC
  0
SECTION
  2
TABLES
  0
TABLE
  2
LTYPE
 70
    2
  0
LTYPE
  2
CONTINUOUS
 70
    64
3
Solid line
 72
    65
 73
0
 40
0.000000
  0
LTYPE
  2
5
 70
    64
  3
Solid Line
 72
    65
 73
0
 40
0.0
  0
ENDTAB
  0
TABLE
  2
LAYER
 70
    3
  0
LAYER
  2
0
 70
    64
 62
7
  6
CONTINUOUS
  0
LAYER
  2
1
 70
    64
 62
7
  6
CONTINUOUS
  0
LAYER
  2
2
 70
    64
 62
7
  6
CONTINUOUS
  0
ENDTAB
  0
TABLE
  2
STYLE
 70
    0
  0
ENDTAB
  0
ENDSEC
  0
SECTION
  2
BLOCKS
  0
ENDSEC
  0
SECTION
  2
ENTITIES
  0
POLYLINE
  8
1
  6
CONTINUOUS
 66
     1
 70
     0
 210
-0.034175
 220
0.992384
 230
-0.118348
 10
0.000000
 20
0.000000
30
-17.362816
  0
VERTEX
  8
1
  6
CONTINUOUS
 10
-377.186477
 20
246.658705
30
-17.362816
  0
VERTEX
  8
1
  6
CONTINUOUS
 10
-377.975135
 20
246.658808
30
-17.361956
  0
VERTEX
  8
1
  6
CONTINUOUS
 10
-378.659559
 20
246.623951
30
-17.362816
  0
VERTEX
  8
1
  6
CONTINUOUS
 10
-380.213807
 20
246.273460
30
-17.361956
  0
SEQEND
  8
0
  0
POLYLINE
  8
1
  6
CONTINUOUS
 66
     1
 70
     0
 210
-0.009427
 220
-0.974142
 230
0.225738
 10
0.000000
 20
0.000000
30
27.749639
  0
VERTEX
  8
1
  6
CONTINUOUS
 10
379.319252
 20
246.701148
30
27.749639
  0
VERTEX
  8
1
  6
CONTINUOUS
 10
381.327725
 20
246.721593
30
27.737849
  0
VERTEX
  8
1
  6
CONTINUOUS
 10
382.768564
 20
246.765759
30
27.742167
  0
VERTEX
  8
1
  6
CONTINUOUS
 10
383.136913
 20
246.767069
30
27.734604
  0
VERTEX
  8
1
  6
CONTINUOUS
 10
383.136917
 20
247.046019
30
27.799686
  0
VERTEX
  8
1
  6
CONTINUOUS
 10
383.403903
 20
247.039360
30
27.792109
  0
VERTEX
  8
1
  6
CONTINUOUS
 10
384.595595
 20
246.675417
30
27.724997
  0
VERTEX
  8
1
  6
CONTINUOUS
 10
385.811432
 20
246.874740
30
27.738141
  0
VERTEX
  8
1
  6
CONTINUOUS
 10
387.988460
 20
247.221431
30
27.787977
  0
VERTEX
  8
1
  6
CONTINUOUS
 10
388.431020
 20
247.207793
30
27.778031
  0
VERTEX
  8
1
  6
CONTINUOUS
 10
389.183178
 20
247.212617
30
27.755303
  0
SEQEND
  8
0
  0
POLYLINE
  8
1
  6
CONTINUOUS
 66
     1
 70
     0
 10
0.000000
 20
0.000000
30
244.331379
  0
VERTEX
  8
1
  6
CONTINUOUS
 10
388.448210
 20
36.925812
30
244.331379
  0
VERTEX
  8
1
  6
CONTINUOUS
 10
388.460148
 20
36.688111
30
244.331379
  0
VERTEX
  8
1
  6
CONTINUOUS
 10
389.291906
 20
36.763116
30
244.331379
  0
VERTEX
  8
1
  6
CONTINUOUS
 10
389.271330
 20
36.984860
30
244.331379
  0
VERTEX
  8
1
  6
CONTINUOUS
 10
388.451227
 20
36.922359
30
244.331379
  0
SEQEND
  8
0
  0
POLYLINE
  8
1
  6
CONTINUOUS
 66
     1
 70
     0
 210
0.033774
 220
-0.764382
 230
-0.643878
 10
0.000000
 20
0.000000
30
-172.551660
  0
VERTEX
  8
1
  6
CONTINUOUS
 10
389.745815
 20
174.049904
30
-172.551660
  0
VERTEX
  8
1
  6
CONTINUOUS
 10
389.898418
 20
173.752878
30
-172.546178
  0
VERTEX
  8
1
  6
CONTINUOUS
 10
390.308983
 20
173.747702
30
-172.551660
  0
VERTEX
  8
1
  6
CONTINUOUS
 10
390.450221
 20
174.024636
30
-172.546178
  0
SEQEND
  8
0
  0
POLYLINE
  8
1
  6
CONTINUOUS
 66
     1
 70
     0
 210
0.008106
 220
-0.001154
 230
-0.999966
 10
0.000000
 20
0.000000
30
-240.927735
  0
VERTEX
  8
1
  6
CONTINUOUS
 10
-379.330177
 20
35.234736
30
-240.927735
  0
VERTEX
  8
1
  6
CONTINUOUS
 10
-379.317404
 20
35.328339
30
-240.941751
  0
VERTEX
  8
1
  6
CONTINUOUS
 10
-380.095587
 20
35.308908
30
-240.935420
  0
VERTEX
  8
1
  6
CONTINUOUS
 10
-380.095097
 20
35.208395
30
-240.935308
  0
VERTEX
  8
1
  6
CONTINUOUS
 10
-379.329436
 20
35.243778
30
-240.941988
  0
SEQEND
  8
0
  0
POLYLINE
  8
1
  6
CONTINUOUS
 66
     1
 70
     0
 210
1.000000
 220
0.000000
 230
0.000000
 10
0.000000
 20
0.000000
30
377.361565
  0
VERTEX
  8
1
  6
CONTINUOUS
 10
35.446624
 20
243.929327
30
377.361565
  0
VERTEX
  8
1
  6
CONTINUOUS
 10
35.508312
 20
243.923718
30
377.361602
  0
SEQEND
  8
0
  0
POLYLINE
  8
1
  6
CONTINUOUS
 66
     1
 70
     0
 10
0.000000
 20
0.000000
30
243.890501
  0
VERTEX
  8
1
  6
CONTINUOUS
 10
378.151324
 20
36.729968
30
243.890501
  0
VERTEX
  8
1
  6
CONTINUOUS
 10
378.142040
 20
35.610525
30
243.890501
  0
VERTEX
  8
1
  6
CONTINUOUS
 10
378.141936
 20
35.434519
30
243.890501
  0
SEQEND
  8
0
  0
POLYLINE
  8
1
  6
CONTINUOUS
 66
     1
 70
     0
 210
-0.015064
 220
-0.771452
 230
-0.636109
 10
0.000000
 20
0.000000
30
-189.460843
  0
VERTEX
  8
1
  6
CONTINUOUS
 10
376.598735
 20
159.820163
30
-189.460843
  0
VERTEX
  8
1
  6
CONTINUOUS
 10
376.814336
 20
159.572338
30
-189.501716
  0
VERTEX
  8
1
  6
CONTINUOUS
 10
376.845239
 20
159.422100
30
-189.447955
  0
VERTEX
  8
1
  6
CONTINUOUS
 10
377.183576
 20
159.501126
30
-189.478913
  0
VERTEX
  8
1
  6
CONTINUOUS
 10
377.380592
 20
159.819158
30
-189.486475
  0
SEQEND
  8
0
  0
POLYLINE
  8
1
  6
CONTINUOUS
 66
     1
 70
     0
 210
0.004238
 220
-0.679430
 230
-0.733728
 10
0.000000
 20
0.000000
30
-201.462063
  0
VERTEX
  8
1
  6
CONTINUOUS
 10
377.574422
 20
141.459886
30
-201.462063
  0
VERTEX
  8
1
  6
CONTINUOUS
 10
377.521489
 20
141.668011
30
-201.528616
  0
VERTEX
  8
1
  6
CONTINUOUS
 10
377.687930
 20
141.676734
30
-201.521127
  0
VERTEX
  8
1
  6
CONTINUOUS
 10
377.779346
 20
141.674835
30
-201.510539
  0
VERTEX
  8
1
  6
CONTINUOUS
 10
377.874483
 20
141.711760
30
-201.506918
  0
VERTEX
  8
1
  6
CONTINUOUS
 10
377.859011
 20
141.773864
30
-201.493504
  0
VERTEX
  8
1
  6
CONTINUOUS
 10
377.818625
 20
141.873030
30
-201.449887
  0
VERTEX
  8
1
  6
CONTINUOUS
 10
377.791143
 20
142.065455
30
-201.499229
  0
VERTEX
  8
1
  6
CONTINUOUS
 10
377.790395
 20
142.193626
30
-201.476376
  0
VERTEX
  8
1
  6
CONTINUOUS
 10
377.803522
 20
142.356768
30
-201.506388
  0
VERTEX
  8
1
  6
CONTINUOUS
 10
377.806005
 20
142.501440
30
-201.547037
  0
VERTEX
  8
1
  6
CONTINUOUS
 10
377.806287
 20
142.536930
30
-201.552977
  0
VERTEX
  8
1
  6
CONTINUOUS
 10
377.724933
 20
142.565819
30
-201.529753
  0
VERTEX
  8
1
  6
CONTINUOUS
 10
377.616111
 20
142.576153
30
-201.517245
  0
VERTEX
  8
1
  6
CONTINUOUS
 10
377.517448
 20
142.562365
30
-201.530013
  0
SEQEND
  8
0
  0
POLYLINE
  8
1
  6
CONTINUOUS
 66
     1
 70
     0
 210
-0.006753
 220
0.064271
 230
-0.997910
 10
0.000000
 20
0.000000
30
-247.445456
  0
VERTEX
  8
1
  6
CONTINUOUS
 10
-389.520746
 20
3.606486
30
-247.445456
  0
VERTEX
  8
1
  6
CONTINUOUS
 10
-389.512540
 20
3.582188
30
-247.446166
  0
VERTEX
  8
1
  6
CONTINUOUS
 10
-389.484070
 20
3.588316
30
-247.453982
  0
VERTEX
  8
1
  6
CONTINUOUS
 10
-389.133330
 20
3.626560
30
-247.444156
  0
VERTEX
  8
1
  6
CONTINUOUS
 10
-389.137271
 20
3.655942
30
-247.447874
  0
VERTEX
  8
1
  6
CONTINUOUS
 10
-389.522531
 20
3.611392
30
-247.450326
  0
SEQEND
  8
0
  0
POLYLINE
  8
1
  6
CONTINUOUS
 66
     1
 70
     0
 210
-0.014673
 220
0.336413
 230
-0.941600
 10
0.000000
 20
0.000000
30
-228.882141
  0
VERTEX
  8
1
  6
CONTINUOUS
 10
-389.499265
 20
93.949495
30
-228.882141
  0
VERTEX
  8
1
  6
CONTINUOUS
 10
-389.490805
 20
93.886099
30
-228.896108
  0
VERTEX
  8
1
  6
CONTINUOUS
 10
-389.473375
 20
93.878255
30
-228.884710
  0
VERTEX
  8
1
  6
CONTINUOUS
 10
-389.238164
 20
93.890077
30
-228.880483
  0
VERTEX
  8
1
  6
CONTINUOUS
 10
-389.214315
 20
93.902108
30
-228.891758
  0
VERTEX
  8
1
  6
CONTINUOUS
 10
-389.178202
 20
93.976567
30
-228.886204
  0
SEQEND
  8
0
  0
POLYLINE
  8
1
  6
CONTINUOUS
 66
     1
 70
     0
 210
-0.001099
 220
0.004671
 230
0.999988
 10
0.000000
 20
0.000000
30
246.796578
  0
VERTEX
  8
1
  6
CONTINUOUS
 10
388.642318
 20
27.126960
30
246.796578
  0
VERTEX
  8
1
  6
CONTINUOUS
 10
388.666449
 20
27.081217
30
246.796770
  0
VERTEX
  8
1
  6
CONTINUOUS
 10
388.848063
 20
27.082837
30
246.796578
  0
VERTEX
  8
1
  6
CONTINUOUS
 10
388.871386
 20
27.129412
30
246.796770
  0
SEQEND
  8
0
  0
POLYLINE
  8
1
  6
CONTINUOUS
 66
     1
 70
     0
 210
-0.015966
 220
-0.003809
 230
-0.999865
 10
0.000000
 20
0.000000
30
-253.375635
  0
VERTEX
  8
1
  6
CONTINUOUS
 10
62.574063
 20
-380.532643
30
-253.375635
  0
VERTEX
  8
1
  6
CONTINUOUS
 10
62.582839
 20
-380.574986
30
-253.370720
  0
VERTEX
  8
1
  6
CONTINUOUS
 10
64.113554
 20
-380.191014
30
-253.375635
  0
VERTEX
  8
1
  6
CONTINUOUS
 10
65.884984
 20
-379.760271
30
-253.370720
  0
SEQEND
  8
0
  0
POLYLINE
  8
1
  6
CONTINUOUS
 66
     1
 70
     0
 210
-0.024945
 220
0.001777
 230
0.999687
 10
0.000000
 20
0.000000
30
237.326415
  0
VERTEX
  8
1
  6
CONTINUOUS
 10
-53.001781
 20
392.407100
30
237.326415
  0
VERTEX
  8
1
  6
CONTINUOUS
 10
-53.031333
 20
392.348022
30
237.330914
  0
VERTEX
  8
1
  6
CONTINUOUS
 10
-53.030563
 20
392.349362
30
237.330448
  0
VERTEX
  8
1
  6
CONTINUOUS
 10
-53.081613
 20
392.349648
30
237.330441
  0
VERTEX
  8
1
  6
CONTINUOUS
 10
-53.131413
 20
392.417896
30
237.328734
  0
VERTEX
  8
1
  6
CONTINUOUS
 10
-53.304659
 20
392.427709
30
237.328488
  0
VERTEX
  8
1
  6
CONTINUOUS
 10
-53.370997
 20
392.411772
30
237.328456
  0
VERTEX
  8
1
  6
CONTINUOUS
 10
-53.466610
 20
392.338981
30
237.334593
  0
VERTEX
  8
1
  6
CONTINUOUS
 10
-53.560762
 20
392.324981
30
237.334943
  0
VERTEX
  8
1
  6
CONTINUOUS
 10
-53.575701
 20
392.401734
30
237.332590
  0
VERTEX
  8
1
  6
CONTINUOUS
 10
-53.678146
 20
392.394931
30
237.332761
  0
VERTEX
  8
1
  6
CONTINUOUS
 10
-53.796756
 20
392.390390
30
237.330717
  0
VERTEX
  8
1
  6
CONTINUOUS
 10
-53.920595
 20
392.380282
30
237.328381
  0
VERTEX
  8
1
  6
CONTINUOUS
 10
-53.921425
 20
392.300242
30
237.330383
  0
VERTEX
  8
1
  6
CONTINUOUS
 10
-54.021841
 20
392.295311
30
237.330506
  0
VERTEX
  8
1
  6
CONTINUOUS
 10
-54.028608
 20
392.366600
30
237.328723
  0
VERTEX
  8
1
  6
CONTINUOUS
 10
-54.153677
 20
392.355604
30
237.328998
  0
VERTEX
  8
1
  6
CONTINUOUS
 10
-54.150788
 20
392.277991
30
237.330940
  0
VERTEX
  8
1
  6
CONTINUOUS
 10
-54.234481
 20
392.275105
30
237.331012
  0
VERTEX
  8
1
  6
CONTINUOUS
 10
-54.262770
 20
392.338821
30
237.329418
  0
VERTEX
  8
1
  6
CONTINUOUS
 10
-54.369270
 20
392.334325
30
237.329531
  0
VERTEX
  8
1
  6
CONTINUOUS
 10
-54.440589
 20
392.395002
30
237.328013
  0
VERTEX
  8
1
  6
CONTINUOUS
 10
-54.505777
 20
392.356676
30
237.328971
  0
VERTEX
  8
1
  6
CONTINUOUS
 10
-54.630133
 20
392.274396
30
237.331030
  0
VERTEX
  8
1
  6
CONTINUOUS
 10
-54.709660
 20
392.255377
30
237.331505
  0
VERTEX
  8
1
  6
CONTINUOUS
 10
-54.738579
 20
392.297433
30
237.330453
  0
VERTEX
  8
1
  6
CONTINUOUS
 10
-54.845576
 20
392.287714
30
237.330697
  0
VERTEX
  8
1
  6
CONTINUOUS
 10
-54.844627
 20
392.243684
30
237.331798
  0
VERTEX
  8
1
  6
CONTINUOUS
 10
-54.954079
 20
392.238103
30
237.331505
  0
VERTEX
  8
1
  6
CONTINUOUS
 10
-54.960720
 20
392.313682
30
237.327890
  0
VERTEX
  8
1
  6
CONTINUOUS
 10
-55.068238
 20
392.305233
30
237.328532
  0
VERTEX
  8
1
  6
CONTINUOUS
 10
-55.063748
 20
392.229450
30
237.329997
  0
VERTEX
  8
1
  6
CONTINUOUS
 10
-55.186539
 20
392.222896
30
237.328435
  0
VERTEX
  8
1
  6
CONTINUOUS
 10
-55.168086
 20
391.998524
30
237.334048
  0
SEQEND
  8
0
  0
POLYLINE
  8
1
  6
CONTINUOUS
 66
     1
 70
     0
 210
0.009235
 220
0.008153
 230
0.999924
 10
0.000000
 20
0.000000
30
250.858425
  0
VERTEX
  8
1
  6
CONTINUOUS
 10
386.535902
 20
25.331154
30
250.858425
  0
VERTEX
  8
1
  6
CONTINUOUS
 10
386.536831
 20
25.441585
30
250.859334
  0
VERTEX
  8
1
  6
CONTINUOUS
 10
386.603695
 20
25.443697
30
250.859969
  0
VERTEX
  8
1
  6
CONTINUOUS
 10
386.603329
 20
25.555854
30
250.860880
  0
VERTEX
  8
1
  6
CONTINUOUS
 10
386.558899
 20
25.559335
30
250.860498
  0
VERTEX
  8
1
  6
CONTINUOUS
 10
386.533509
 20
25.661154
30
250.861094
  0
VERTEX
  8
1
  6
CONTINUOUS
 10
386.609002
 20
25.666713
30
250.861836
  0
VERTEX
  8
1
  6
CONTINUOUS
 10
386.624589
 20
25.765055
30
250.862782
  0
VERTEX
  8
1
  6
CONTINUOUS
 10
386.601360
 20
25.876797
30
250.863479
  0
VERTEX
  8
1
  6
CONTINUOUS
 10
386.632435
 20
25.906540
30
250.864008
  0
VERTEX
  8
1
  6
CONTINUOUS
 10
386.625656
 20
26.025218
30
250.859304
  0
VERTEX
  8
1
  6
CONTINUOUS
 10
386.539828
 20
26.035204
30
250.857729
  0
VERTEX
  8
1
  6
CONTINUOUS
 10
386.538589
 20
26.129675
30
250.858488
  0
VERTEX
  8
1
  6
CONTINUOUS
 10
386.646864
 20
26.133917
30
250.859523
  0
VERTEX
  8
1
  6
CONTINUOUS
 10
386.637443
 20
26.250825
30
250.860389
  0
VERTEX
  8
1
  6
CONTINUOUS
 10
386.541683
 20
26.256496
30
250.859551
  0
VERTEX
  8
1
  6
CONTINUOUS
 10
386.543099
 20
26.465712
30
250.861270
  0
VERTEX
  8
1
  6
CONTINUOUS
 10
386.542314
 20
26.596417
30
250.862328
  0
VERTEX
  8
1
  6
CONTINUOUS
 10
386.636356
 20
26.604551
30
250.863263
  0
VERTEX
  8
1
  6
CONTINUOUS
 10
386.634695
 20
26.712395
30
250.864127
  0
VERTEX
  8
1
  6
CONTINUOUS
 10
386.543692
 20
26.740926
30
250.863519
  0
VERTEX
  8
1
  6
CONTINUOUS
 10
386.532954
 20
26.818148
30
250.864049
  0
SEQEND
  8
0
  0
POLYLINE
  8
1
  6
CONTINUOUS
 66
     1
 70
     0
 210
-0.025643
 220
-0.023294
 230
-0.999400
 10
0.000000
 20
0.000000
30
-257.547488
  0
VERTEX
  8
1
  6
CONTINUOUS
 10
239.981263
 20
-298.364856
30
-257.547488
  0
VERTEX
  8
1
  6
CONTINUOUS
 10
239.788836
 20
-298.475517
30
-257.538375
  0
VERTEX
  8
1
  6
CONTINUOUS
 10
239.894829
 20
-298.565078
30
-257.541480
  0
VERTEX
  8
1
  6
CONTINUOUS
 10
239.821136
 20
-298.631476
30
-257.543781
  0
VERTEX
  8
1
  6
CONTINUOUS
 10
239.742808
 20
-298.596024
30
-257.542553
  0
VERTEX
  8
1
  6
CONTINUOUS
 10
239.738544
 20
-298.602231
30
-257.542768
  0
VERTEX
  8
1
  6
CONTINUOUS
 10
239.795142
 20
-298.664427
30
-257.544924
  0
VERTEX
  8
1
  6
CONTINUOUS
 10
239.882242
 20
-298.598664
30
-257.542644
  0
VERTEX
  8
1
  6
CONTINUOUS
 10
239.918433
 20
-298.627541
30
-257.543645
  0
VERTEX
  8
1
  6
CONTINUOUS
 10
239.983308
 20
-298.573239
30
-257.541763
  0
VERTEX
  8
1
  6
CONTINUOUS
 10
240.047886
 20
-298.641000
30
-257.544112
  0
VERTEX
  8
1
  6
CONTINUOUS
 10
240.142700
 20
-298.554239
30
-257.541104
  0
VERTEX
  8
1
  6
CONTINUOUS
 10
240.072228
 20
-298.475517
30
-257.538375
  0
SEQEND
  8
0
  0
POLYLINE
  8
1
  6
CONTINUOUS
 66
     1
 70
     0
 210
0.057587
 220
-0.211170
 230
0.975751
 10
0.000000
 20
0.000000
30
257.269174
  0
VERTEX
  8
1
  6
CONTINUOUS
 10
380.317322
 20
-17.481442
30
257.269174
  0
VERTEX
  8
1
  6
CONTINUOUS
 10
380.303562
 20
-17.530401
30
257.258493
  0
VERTEX
  8
1
  6
CONTINUOUS
 10
380.513514
 20
-17.585902
30
257.269174
  0
VERTEX
  8
1
  6
CONTINUOUS
 10
380.526407
 20
-17.538285
30
257.258493
  0
SEQEND
  8
0
  0
POLYLINE
  8
1
  6
CONTINUOUS
 66
     1
 70
     0
 210
0.042145
 220
-0.013199
 230
-0.999024
 10
0.000000
 20
0.000000
30
-230.691259
  0
VERTEX
  8
1
  6
CONTINUOUS
 10
144.218237
 20
370.533644
30
-230.691259
  0
VERTEX
  8
1
  6
CONTINUOUS
 10
146.070372
 20
369.942689
30
-230.716951
  0
VERTEX
  8
1
  6
CONTINUOUS
 10
146.401529
 20
370.934134
30
-230.691259
  0
VERTEX
  8
1
  6
CONTINUOUS
 10
144.558400
 20
371.505541
30
-230.716951
  0
SEQEND
  8
0
  0
POLYLINE
  8
1
  6
CONTINUOUS
 66
     1
 70
     0
 210
-0.002070
 220
-0.001409
 230
-0.999997
 10
0.000000
 20
0.000000
30
-247.556902
  0
VERTEX
  8
1
  6
CONTINUOUS
 10
-379.272676
 20
30.700977
30
-247.556902
  0
VERTEX
  8
1
  6
CONTINUOUS
 10
-379.281136
 20
31.145301
30
-247.556252
  0
VERTEX
  8
1
  6
CONTINUOUS
 10
-379.588719
 20
31.154610
30
-247.556902
  0
VERTEX
  8
1
  6
CONTINUOUS
 10
-379.589312
 20
30.692595
30
-247.556252
  0
SEQEND
  8
0
  0
POLYLINE
  8
1
  6
CONTINUOUS
 66
     1
 70
     0
 210
-0.309783
 220
0.555283
 230
0.771813
 10
0.000000
 20
0.000000
30
91.654609
  0
VERTEX
  8
1
  6
CONTINUOUS
 10
-345.497795
 20
277.102995
30
91.654609
  0
VERTEX
  8
1
  6
CONTINUOUS
 10
-345.582045
 20
277.166638
30
91.640743
  0
VERTEX
  8
1
  6
CONTINUOUS
 10
-345.638998
 20
277.190966
30
91.649765
  0
VERTEX
  8
1
  6
CONTINUOUS
 10
-345.692440
 20
277.198097
30
91.643332
  0
VERTEX
  8
1
  6
CONTINUOUS
 10
-345.739358
 20
277.207032
30
91.647148
  0
VERTEX
  8
1
  6
CONTINUOUS
 10
-345.779297
 20
277.207164
30
91.652629
  0
VERTEX
  8
1
  6
CONTINUOUS
 10
-345.815505
 20
277.215015
30
91.638896
  0
SEQEND
  8
0
  0
POLYLINE
  8
1
  6
CONTINUOUS
 66
     1
 70
     0
 210
-0.173551
 220
0.225418
 230
0.958680
 10
0.000000
 20
0.000000
30
178.512041
  0
VERTEX
  8
1
  6
CONTINUOUS
 10
-319.152108
 20
266.559888
30
178.512041
  0
VERTEX
  8
1
  6
CONTINUOUS
 10
-319.220149
 20
266.615971
30
178.507097
  0
VERTEX
  8
1
  6
CONTINUOUS
 10
-319.308134
 20
266.665597
30
178.506769
  0
VERTEX
  8
1
  6
CONTINUOUS
 10
-319.372416
 20
266.665706
30
178.507188
  0
VERTEX
  8
1
  6
CONTINUOUS
 10
-319.410662
 20
266.665187
30
178.510942
  0
VERTEX
  8
1
  6
CONTINUOUS
 10
-319.463128
 20
266.671063
30
178.509198
  0
VERTEX
  8
1
  6
CONTINUOUS
 10
-319.480183
 20
266.685632
30
178.504424
  0
SEQEND
  8
0
  0
POLYLINE
  8
1
  6
CONTINUOUS
 66
     1
 70
     0
 210
-0.368108
 220
0.792436
 230
0.486355
 10
0.000000
 20
0.000000
30
6.656061
  0
VERTEX
  8
1
  6
CONTINUOUS
 10
-356.593657
 20
278.959698
30
6.656061
  0
VERTEX
  8
1
  6
CONTINUOUS
 10
-356.644157
 20
278.992474
30
6.629991
  0
VERTEX
  8
1
  6
CONTINUOUS
 10
-356.723157
 20
279.025349
30
6.614394
  0
VERTEX
  8
1
  6
CONTINUOUS
 10
-356.789289
 20
279.038968
30
6.632502
  0
VERTEX
  8
1
  6
CONTINUOUS
 10
-356.841295
 20
279.050804
30
6.651151
  0
VERTEX
  8
1
  6
CONTINUOUS
 10
-356.877397
 20
279.058492
30
6.647097
  0
VERTEX
  8
1
  6
CONTINUOUS
 10
-356.904957
 20
279.074447
30
6.618432
  0
VERTEX
  8
1
  6
CONTINUOUS
 10
-356.911614
 20
279.079424
30
6.609491
  0
SEQEND
  8
0
  0
POLYLINE
  8
1
  6
CONTINUOUS
 66
     1
 70
     0
 210
-0.137022
 220
-0.190060
 230
0.972164
 10
0.000000
 20
0.000000
30
182.131994
  0
VERTEX
  8
1
  6
CONTINUOUS
 10
287.962727
 20
298.642386
30
182.131994
  0
VERTEX
  8
1
  6
CONTINUOUS
 10
288.045010
 20
298.646610
30
182.139406
  0
VERTEX
  8
1
  6
CONTINUOUS
 10
288.117183
 20
298.698613
30
182.140186
  0
VERTEX
  8
1
  6
CONTINUOUS
 10
288.159275
 20
298.746446
30
182.134426
  0
VERTEX
  8
1
  6
CONTINUOUS
 10
288.184465
 20
298.810398
30
182.136319
  0
VERTEX
  8
1
  6
CONTINUOUS
 10
288.213548
 20
298.853303
30
182.143285
  0
VERTEX
  8
1
  6
CONTINUOUS
 10
288.243374
 20
298.870227
30
182.144531
  0
SEQEND
  8
0
  0
POLYLINE
  8
1
  6
CONTINUOUS
 66
     1
 70
     0
 210
-0.278113
 220
0.781872
 230
0.557968
 10
0.000000
 20
0.000000
30
57.895284
  0
VERTEX
  8
1
  6
CONTINUOUS
 10
-367.776079
 20
258.808207
30
57.895284
  0
VERTEX
  8
1
  6
CONTINUOUS
 10
-367.849296
 20
258.854156
30
57.867147
  0
VERTEX
  8
1
  6
CONTINUOUS
 10
-367.911320
 20
258.872475
30
57.860004
  0
VERTEX
  8
1
  6
CONTINUOUS
 10
-367.989977
 20
258.861540
30
57.872403
  0
VERTEX
  8
1
  6
CONTINUOUS
 10
-368.050782
 20
258.837696
30
57.885445
  0
VERTEX
  8
1
  6
CONTINUOUS
 10
-368.114679
 20
258.826938
30
57.880571
  0
VERTEX
  8
1
  6
CONTINUOUS
 10
-368.134514
 20
258.828522
30
57.852701
  0
SEQEND
  8
0
  0
POLYLINE
  8
1
  6
CONTINUOUS
 66
     1
 70
     0
 210
0.149937
 220
0.599177
 230
-0.786452
 10
0.000000
 20
0.000000
30
-118.003788
  0
VERTEX
  8
1
  6
CONTINUOUS
 10
-359.904541
 20
249.743862
30
-118.003788
  0
VERTEX
  8
1
  6
CONTINUOUS
 10
-359.954242
 20
249.762562
30
-118.015431
  0
VERTEX
  8
1
  6
CONTINUOUS
 10
-360.009078
 20
249.804100
30
-118.017367
  0
VERTEX
  8
1
  6
CONTINUOUS
 10
-360.052404
 20
249.839349
30
-118.011624
  0
VERTEX
  8
1
  6
CONTINUOUS
 10
-360.096147
 20
249.864821
30
-118.004785
  0
VERTEX
  8
1
  6
CONTINUOUS
 10
-360.142923
 20
249.892537
30
-118.006055
  0
VERTEX
  8
1
  6
CONTINUOUS
 10
-360.186970
 20
249.897504
30
-118.012575
  0
VERTEX
  8
1
  6
CONTINUOUS
 10
-360.213539
 20
249.882307
30
-118.018478
  0
SEQEND
  8
0
  0
POLYLINE
  8
1
  6
CONTINUOUS
 66
     1
 70
     0
 210
-0.019924
 220
-0.528387
 230
0.848770
 10
0.000000
 20
0.000000
30
185.029604
  0
VERTEX
  8
1
  6
CONTINUOUS
 10
377.944927
 20
170.354458
30
185.029604
  0
VERTEX
  8
1
  6
CONTINUOUS
 10
377.997315
 20
170.327315
30
185.037871
  0
VERTEX
  8
1
  6
CONTINUOUS
 10
378.053468
 20
170.327204
30
185.039466
  0
VERTEX
  8
1
  6
CONTINUOUS
 10
378.106748
 20
170.338843
30
185.045429
  0
VERTEX
  8
1
  6
CONTINUOUS
 10
378.151977
 20
170.375241
30
185.032919
  0
VERTEX
  8
1
  6
CONTINUOUS
 10
378.185697
 20
170.402103
30
185.034482
  0
VERTEX
  8
1
  6
CONTINUOUS
 10
378.229332
 20
170.421893
30
185.046041
  0
VERTEX
  8
1
  6
CONTINUOUS
 10
378.248555
 20
170.418232
30
185.051879
  0
VERTEX
  8
1
  6
CONTINUOUS
 10
378.248604
 20
170.414398
30
185.048170
  0
SEQEND
  8
0
  0
POLYLINE
  8
1
  6
CONTINUOUS
 66
     1
 70
     0
 210
-0.066809
 220
-0.608801
 230
0.790505
 10
0.000000
 20
0.000000
30
150.236512
  0
VERTEX
  8
1
  6
CONTINUOUS
 10
373.933980
 20
209.648330
30
150.236512
  0
VERTEX
  8
1
  6
CONTINUOUS
 10
373.967189
 20
209.618274
30
150.233604
  0
VERTEX
  8
1
  6
CONTINUOUS
 10
373.994995
 20
209.598544
30
150.221605
  0
VERTEX
  8
1
  6
CONTINUOUS
 10
374.034314
 20
209.610544
30
150.221584
  0
VERTEX
  8
1
  6
CONTINUOUS
 10
374.077924
 20
209.633218
30
150.234577
  0
VERTEX
  8
1
  6
CONTINUOUS
 10
374.119357
 20
209.658789
30
150.238232
  0
VERTEX
  8
1
  6
CONTINUOUS
 10
374.160626
 20
209.686788
30
150.223088
  0
VERTEX
  8
1
  6
CONTINUOUS
 10
374.193831
 20
209.717981
30
150.221295
  0
VERTEX
  8
1
  6
CONTINUOUS
 10
374.225589
 20
209.732096
30
150.214723
  0
VERTEX
  8
1
  6
CONTINUOUS
 10
374.259016
 20
209.726246
30
150.220347
  0
VERTEX
  8
1
  6
CONTINUOUS
 10
374.273051
 20
209.711220
30
150.216164
  0
SEQEND
  8
0
  0
POLYLINE
  8
1
  6
CONTINUOUS
 66
     1
 70
     0
 210
-0.086799
 220
-0.233261
 230
0.968533
 10
0.000000
 20
0.000000
30
198.826686
  0
VERTEX
  8
1
  6
CONTINUOUS
 10
344.874869
 20
219.393102
30
198.826686
  0
VERTEX
  8
1
  6
CONTINUOUS
 10
344.923200
 20
219.381073
30
198.829777
  0
VERTEX
  8
1
  6
CONTINUOUS
 10
344.977619
 20
219.378473
30
198.830890
  0
VERTEX
  8
1
  6
CONTINUOUS
 10
345.024033
 20
219.400528
30
198.836357
  0
VERTEX
  8
1
  6
CONTINUOUS
 10
345.051623
 20
219.423702
30
198.831739
  0
VERTEX
  8
1
  6
CONTINUOUS
 10
345.087717
 20
219.470603
30
198.827259
  0
VERTEX
  8
1
  6
CONTINUOUS
 10
345.094221
 20
219.502354
30
198.832016
  0
VERTEX
  8
1
  6
CONTINUOUS
 10
345.113586
 20
219.527868
30
198.832140
  0
VERTEX
  8
1
  6
CONTINUOUS
 10
345.159595
 20
219.549671
30
198.837228
  0
VERTEX
  8
1
  6
CONTINUOUS
 10
345.179987
 20
219.547985
30
198.837215
  0
SEQEND
  8
0
  0
POLYLINE
  8
1
  6
CONTINUOUS
 66
     1
 70
     0
 210
-0.125190
 220
0.101611
 230
0.986916
 10
0.000000
 20
0.000000
30
199.655761
  0
VERTEX
  8
1
  6
CONTINUOUS
 10
-264.952208
 20
311.141502
30
199.655761
  0
VERTEX
  8
1
  6
CONTINUOUS
 10
-264.951028
 20
311.185581
30
199.637194
  0
VERTEX
  8
1
  6
CONTINUOUS
 10
-264.981779
 20
311.233357
30
199.643377
  0
VERTEX
  8
1
  6
CONTINUOUS
 10
-265.022267
 20
311.274134
30
199.638464
  0
VERTEX
  8
1
  6
CONTINUOUS
 10
-265.055592
 20
311.302643
30
199.642985
  0
VERTEX
  8
1
  6
CONTINUOUS
 10
-265.113096
 20
311.339680
30
199.642180
  0
VERTEX
  8
1
  6
CONTINUOUS
 10
-265.156104
 20
311.354475
30
199.645881
  0
VERTEX
  8
1
  6
CONTINUOUS
 10
-265.181251
 20
311.376956
30
199.637838
  0
VERTEX
  8
1
  6
CONTINUOUS
 10
-265.195178
 20
311.403684
30
199.626914
  0
SEQEND
  8
0
  0
POLYLINE
  8
1
  6
CONTINUOUS
 66
     1
 70
     0
 210
-0.088971
 220
-0.214425
 230
0.972680
 10
0.000000
 20
0.000000
30
199.622374
  0
VERTEX
  8
1
  6
CONTINUOUS
 10
339.211229
 20
228.507809
30
199.622374
  0
VERTEX
  8
1
  6
CONTINUOUS
 10
339.268259
 20
228.501674
30
199.621620
  0
VERTEX
  8
1
  6
CONTINUOUS
 10
339.326214
 20
228.527076
30
199.626645
  0
VERTEX
  8
1
  6
CONTINUOUS
 10
339.366798
 20
228.577616
30
199.629218
  0
VERTEX
  8
1
  6
CONTINUOUS
 10
339.394937
 20
228.607628
30
199.620281
  0
VERTEX
  8
1
  6
CONTINUOUS
 10
339.432970
 20
228.640921
30
199.611448
  0
VERTEX
  8
1
  6
CONTINUOUS
 10
339.451543
 20
228.671185
30
199.620634
  0
VERTEX
  8
1
  6
CONTINUOUS
 10
339.487065
 20
228.695129
30
199.619355
  0
VERTEX
  8
1
  6
CONTINUOUS
 10
339.502994
 20
228.696698
30
199.621642
  0
SEQEND
  8
0
  0
POLYLINE
  8
1
  6
CONTINUOUS
 66
     1
 70
     0
 210
-0.012606
 220
-0.282107
 230
0.959300
 10
0.000000
 20
0.000000
30
223.194821
  0
VERTEX
  8
1
  6
CONTINUOUS
 10
379.233603
 20
117.315465
30
223.194821
  0
VERTEX
  8
1
  6
CONTINUOUS
 10
379.258528
 20
117.277923
30
223.196429
  0
VERTEX
  8
1
  6
CONTINUOUS
 10
379.298499
 20
117.241237
30
223.195536
  0
VERTEX
  8
1
  6
CONTINUOUS
 10
379.340829
 20
117.210839
30
223.197289
  0
VERTEX
  8
1
  6
CONTINUOUS
 10
379.371535
 20
117.219180
30
223.194833
  0
VERTEX
  8
1
  6
CONTINUOUS
 10
379.410051
 20
117.238452
30
223.197706
  0
VERTEX
  8
1
  6
CONTINUOUS
 10
379.452665
 20
117.262574
30
223.199598
  0
VERTEX
  8
1
  6
CONTINUOUS
 10
379.483252
 20
117.282069
30
223.190712
  0
VERTEX
  8
1
  6
CONTINUOUS
 10
379.515525
 20
117.307093
30
223.197286
  0
VERTEX
  8
1
  6
CONTINUOUS
 10
379.561278
 20
117.316412
30
223.192744
  0
VERTEX
  8
1
  6
CONTINUOUS
 10
379.591711
 20
117.312752
30
223.196968
  0
SEQEND
  8
0
  0
POLYLINE
  8
1
  6
CONTINUOUS
 66
     1
 70
     0
 210
-0.071831
 220
0.096963
 230
0.992693
 10
0.000000
 20
0.000000
30
221.177135
  0
VERTEX
  8
1
  6
CONTINUOUS
 10
-325.828626
 20
229.309816
30
221.177135
  0
VERTEX
  8
1
  6
CONTINUOUS
 10
-325.835483
 20
229.350719
30
221.182158
  0
VERTEX
  8
1
  6
CONTINUOUS
 10
-325.878169
 20
229.395152
30
221.178495
  0
VERTEX
  8
1
  6
CONTINUOUS
 10
-325.918740
 20
229.415519
30
221.181233
  0
VERTEX
  8
1
  6
CONTINUOUS
 10
-325.966047
 20
229.420285
30
221.178915
  0
VERTEX
  8
1
  6
CONTINUOUS
 10
-326.019993
 20
229.424855
30
221.183141
  0
VERTEX
  8
1
  6
CONTINUOUS
 10
-326.053732
 20
229.426537
30
221.189888
  0
VERTEX
  8
1
  6
CONTINUOUS
 10
-326.080756
 20
229.430166
30
221.191621
  0
VERTEX
  8
1
  6
CONTINUOUS
 10
-326.110653
 20
229.456407
30
221.201467
  0
VERTEX
  8
1
  6
CONTINUOUS
 10
-326.124447
 20
229.469306
30
221.191643
  0
SEQEND
  8
0
  0
POLYLINE
  8
1
  6
CONTINUOUS
 66
     1
 70
     0
 210
-0.155046
 220
0.192051
 230
0.969060
 10
0.000000
 20
0.000000
30
186.661806
  0
VERTEX
  8
1
  6
CONTINUOUS
 10
-317.467275
 20
268.903598
30
186.661806
  0
VERTEX
  8
1
  6
CONTINUOUS
 10
-317.464189
 20
268.941267
30
186.658000
  0
VERTEX
  8
1
  6
CONTINUOUS
 10
-317.489290
 20
268.985867
30
186.647530
  0
VERTEX
  8
1
  6
CONTINUOUS
 10
-317.522633
 20
269.016252
30
186.653145
  0
VERTEX
  8
1
  6
CONTINUOUS
 10
-317.573584
 20
269.041622
30
186.657812
  0
VERTEX
  8
1
  6
CONTINUOUS
 10
-317.611514
 20
269.054774
30
186.654908
  0
VERTEX
  8
1
  6
CONTINUOUS
 10
-317.652418
 20
269.053163
30
186.656209
  0
VERTEX
  8
1
  6
CONTINUOUS
 10
-317.693308
 20
269.054761
30
186.658917
  0
VERTEX
  8
1
  6
CONTINUOUS
 10
-317.729249
 20
269.073252
30
186.647530
  0
SEQEND
  8
0
  0
POLYLINE
  8
1
  6
CONTINUOUS
 66
     1
 70
     0
 210
-0.050751
 220
-0.199806
 230
0.978520
 10
0.000000
 20
0.000000
30
216.078630
  0
VERTEX
  8
1
  6
CONTINUOUS
 10
362.317407
 20
173.830719
30
216.078630
  0
VERTEX
  8
1
  6
CONTINUOUS
 10
362.363602
 20
173.813867
30
216.082180
  0
VERTEX
  8
1
  6
CONTINUOUS
 10
362.430321
 20
173.825646
30
216.086311
  0
VERTEX
  8
1
  6
CONTINUOUS
 10
362.465915
 20
173.851455
30
216.080874
  0
VERTEX
  8
1
  6
CONTINUOUS
 10
362.490179
 20
173.888513
30
216.082324
  0
VERTEX
  8
1
  6
CONTINUOUS
 10
362.516267
 20
173.909431
30
216.076154
  0
VERTEX
  8
1
  6
CONTINUOUS
 10
362.561418
 20
173.924911
30
216.076861
  0
VERTEX
  8
1
  6
CONTINUOUS
 10
362.580861
 20
173.932113
30
216.082838
  0
VERTEX
  8
1
  6
CONTINUOUS
 10
362.596137
 20
173.931724
30
216.083802
  0
SEQEND
  8
0
  0
POLYLINE
  8
1
  6
CONTINUOUS
 66
     1
 70
     0
 210
-0.168760
 220
0.026746
 230
0.985294
 10
0.000000
 20
0.000000
30
179.999038
  0
VERTEX
  8
1
  6
CONTINUOUS
 10
-91.918123
 20
409.310311
30
179.999038
  0
VERTEX
  8
1
  6
CONTINUOUS
 10
-91.890964
 20
409.358858
30
179.990619
  0
VERTEX
  8
1
  6
CONTINUOUS
 10
-91.889304
 20
409.404408
30
179.991039
  0
VERTEX
  8
1
  6
CONTINUOUS
 10
-91.904127
 20
409.430034
30
179.994037
  0
VERTEX
  8
1
  6
CONTINUOUS
 10
-91.929268
 20
409.475989
30
179.990884
  0
VERTEX
  8
1
  6
CONTINUOUS
 10
-91.960014
 20
409.514064
30
179.993475
  0
VERTEX
  8
1
  6
CONTINUOUS
 10
-91.989908
 20
409.551975
30
179.994345
  0
VERTEX
  8
1
  6
CONTINUOUS
 10
-92.017717
 20
409.592929
30
179.992934
  0
VERTEX
  8
1
  6
CONTINUOUS
 10
-92.014487
 20
409.621537
30
179.986222
  0
SEQEND
  8
0
  0
POLYLINE
  8
1
  6
CONTINUOUS
 66
     1
 70
     0
 210
0.110200
 220
-0.418369
 230
0.901567
 10
0.000000
 20
0.000000
30
251.556038
  0
VERTEX
  8
1
  6
CONTINUOUS
 10
378.285453
 20
47.442273
30
251.556038
  0
VERTEX
  8
1
  6
CONTINUOUS
 10
378.317832
 20
47.405146
30
251.562370
  0
VERTEX
  8
1
  6
CONTINUOUS
 10
378.361149
 20
47.370732
30
251.564531
  0
VERTEX
  8
1
  6
CONTINUOUS
 10
378.423272
 20
47.347989
30
251.559175
  0
VERTEX
  8
1
  6
CONTINUOUS
 10
378.471299
 20
47.358234
30
251.562394
  0
VERTEX
  8
1
  6
CONTINUOUS
 10
378.536550
 20
47.379692
30
251.559274
  0
VERTEX
  8
1
  6
CONTINUOUS
 10
378.578453
 20
47.397138
30
251.568606
  0
VERTEX
  8
1
  6
CONTINUOUS
 10
378.635798
 20
47.387712
30
251.566430
  0
VERTEX
  8
1
  6
CONTINUOUS
 10
378.644156
 20
47.379316
30
251.569502
  0
SEQEND
  8
0
  0
POLYLINE
  8
1
  6
CONTINUOUS
 66
     1
 70
     0
 210
-0.018003
 220
-0.272690
 230
0.961933
 10
0.000000
 20
0.000000
30
222.137530
  0
VERTEX
  8
1
  6
CONTINUOUS
 10
380.039607
 20
122.998376
30
222.137530
  0
VERTEX
  8
1
  6
CONTINUOUS
 10
380.087616
 20
122.953575
30
222.150258
  0
VERTEX
  8
1
  6
CONTINUOUS
 10
380.144675
 20
122.940948
30
222.153845
  0
VERTEX
  8
1
  6
CONTINUOUS
 10
380.209268
 20
122.966321
30
222.156503
  0
VERTEX
  8
1
  6
CONTINUOUS
 10
380.270217
 20
123.009732
30
222.139686
  0
VERTEX
  8
1
  6
CONTINUOUS
 10
380.293587
 20
123.045152
30
222.144870
  0
VERTEX
  8
1
  6
CONTINUOUS
 10
380.333680
 20
123.076455
30
222.152121
  0
VERTEX
  8
1
  6
CONTINUOUS
 10
380.361520
 20
123.079109
30
222.146883
  0
VERTEX
  8
1
  6
CONTINUOUS
 10
380.379536
 20
123.078843
30
222.162206
  0
VERTEX
  8
1
  6
CONTINUOUS
 10
380.383812
 20
123.079529
30
222.162011
  0
SEQEND
  8
0
  0
POLYLINE
  8
1
  6
CONTINUOUS
 66
     1
 70
     0
 210
0.047169
 220
-0.268650
 230
0.962082
 10
0.000000
 20
0.000000
30
247.318707
  0
VERTEX
  8
1
  6
CONTINUOUS
 10
383.212969
 20
34.434897
30
247.318707
  0
VERTEX
  8
1
  6
CONTINUOUS
 10
383.239023
 20
34.383340
30
247.323908
  0
VERTEX
  8
1
  6
CONTINUOUS
 10
383.282862
 20
34.351779
30
247.321197
  0
VERTEX
  8
1
  6
CONTINUOUS
 10
383.327018
 20
34.355741
30
247.318730
  0
VERTEX
  8
1
  6
CONTINUOUS
 10
383.372067
 20
34.381996
30
247.321599
  0
VERTEX
  8
1
  6
CONTINUOUS
 10
383.425910
 20
34.417611
30
247.329437
  0
VERTEX
  8
1
  6
CONTINUOUS
 10
383.453797
 20
34.425193
30
247.322803
  0
VERTEX
  8
1
  6
CONTINUOUS
 10
383.492155
 20
34.427464
30
247.334715
  0
VERTEX
  8
1
  6
CONTINUOUS
 10
383.519875
 20
34.408682
30
247.329727
  0
SEQEND
  8
0
  0
POLYLINE
  8
1
  6
CONTINUOUS
 66
     1
 70
     0
 210
0.030578
 220
-0.058243
 230
0.997834
 10
0.000000
 20
0.000000
30
256.631982
  0
VERTEX
  8
1
  6
CONTINUOUS
 10
354.791753
 20
-133.008377
30
256.631982
  0
VERTEX
  8
1
  6
CONTINUOUS
 10
354.799675
 20
-133.064625
30
256.634826
  0
VERTEX
  8
1
  6
CONTINUOUS
 10
354.847868
 20
-133.095513
30
256.632972
  0
VERTEX
  8
1
  6
CONTINUOUS
 10
354.897052
 20
-133.096400
30
256.634759
  0
VERTEX
  8
1
  6
CONTINUOUS
 10
354.957503
 20
-133.083977
30
256.639560
  0
VERTEX
  8
1
  6
CONTINUOUS
 10
355.000060
 20
-133.087485
30
256.652329
  0
VERTEX
  8
1
  6
CONTINUOUS
 10
355.025446
 20
-133.110757
30
256.650404
  0
VERTEX
  8
1
  6
CONTINUOUS
 10
355.034554
 20
-133.128034
30
256.646355
  0
SEQEND
  8
0
  0
POLYLINE
  8
1
  6
CONTINUOUS
 66
     1
 70
     0
 210
0.069499
 220
-0.508319
 230
0.858360
 10
0.000000
 20
0.000000
30
222.477570
  0
VERTEX
  8
1
  6
CONTINUOUS
 10
384.809242
 20
109.837762
30
222.477570
  0
VERTEX
  8
1
  6
CONTINUOUS
 10
384.849917
 20
109.807016
30
222.485394
  0
VERTEX
  8
1
  6
CONTINUOUS
 10
384.902367
 20
109.798315
30
222.486573
  0
VERTEX
  8
1
  6
CONTINUOUS
 10
384.960298
 20
109.818684
30
222.489477
  0
VERTEX
  8
1
  6
CONTINUOUS
 10
385.030307
 20
109.841248
30
222.472974
  0
VERTEX
  8
1
  6
CONTINUOUS
 10
385.066920
 20
109.857607
30
222.481289
  0
VERTEX
  8
1
  6
CONTINUOUS
 10
385.096392
 20
109.854758
30
222.478469
  0
VERTEX
  8
1
  6
CONTINUOUS
 10
385.110981
 20
109.858724
30
222.488160
  0
SEQEND
  8
0
  0
POLYLINE
  8
1
  6
CONTINUOUS
 66
     1
 70
     0
 210
0.065286
 220
-0.424611
 230
0.903019
 10
0.000000
 20
0.000000
30
234.637179
  0
VERTEX
  8
1
  6
CONTINUOUS
 10
384.735392
 20
82.500093
30
234.637179
  0
VERTEX
  8
1
  6
CONTINUOUS
 10
384.775676
 20
82.455204
30
234.652801
  0
VERTEX
  8
1
  6
CONTINUOUS
 10
384.803904
 20
82.429293
30
234.653186
  0
VERTEX
  8
1
  6
CONTINUOUS
 10
384.870003
 20
82.451565
30
234.644501
  0
VERTEX
  8
1
  6
CONTINUOUS
 10
384.918774
 20
82.453254
30
234.643220
  0
VERTEX
  8
1
  6
CONTINUOUS
 10
384.948129
 20
82.455930
30
234.647202
  0
VERTEX
  8
1
  6
CONTINUOUS
 10
384.982928
 20
82.457967
30
234.646711
  0
VERTEX
  8
1
  6
CONTINUOUS
 10
385.031568
 20
82.465001
30
234.658651
  0
VERTEX
  8
1
  6
CONTINUOUS
 10
385.046028
 20
82.459669
30
234.659755
  0
SEQEND
  8
0
  0
POLYLINE
  8
1
  6
CONTINUOUS
 66
     1
 70
     0
 210
-0.024941
 220
-0.058860
 230
0.997955
 10
0.000000
 20
0.000000
30
235.316525
  0
VERTEX
  8
1
  6
CONTINUOUS
 10
341.460969
 20
195.359550
30
235.316525
  0
VERTEX
  8
1
  6
CONTINUOUS
 10
341.532283
 20
195.358888
30
235.310515
  0
VERTEX
  8
1
  6
CONTINUOUS
 10
341.581686
 20
195.385162
30
235.313155
  0
VERTEX
  8
1
  6
CONTINUOUS
 10
341.628323
 20
195.449642
30
235.307728
  0
VERTEX
  8
1
  6
CONTINUOUS
 10
341.640533
 20
195.481114
30
235.315221
  0
VERTEX
  8
1
  6
CONTINUOUS
 10
341.667978
 20
195.511591
30
235.316296
  0
VERTEX
  8
1
  6
CONTINUOUS
 10
341.698341
 20
195.523419
30
235.307325
  0
VERTEX
  8
1
  6
CONTINUOUS
 10
341.722285
 20
195.519972
30
235.307546
  0
SEQEND
  8
0
  0
POLYLINE
  8
1
  6
CONTINUOUS
 66
     1
 70
     0
 210
-0.265481
 220
0.319750
 230
0.909549
 10
0.000000
 20
0.000000
30
133.132292
  0
VERTEX
  8
1
  6
CONTINUOUS
 10
-316.862539
 20
303.729501
30
133.132292
  0
VERTEX
  8
1
  6
CONTINUOUS
 10
-316.882140
 20
303.770950
30
133.127107
  0
VERTEX
  8
1
  6
CONTINUOUS
 10
-316.943267
 20
303.803225
30
133.121371
  0
VERTEX
  8
1
  6
CONTINUOUS
 10
-316.987975
 20
303.826948
30
133.125708
  0
VERTEX
  8
1
  6
CONTINUOUS
 10
-317.042408
 20
303.853996
30
133.131373
  0
VERTEX
  8
1
  6
CONTINUOUS
 10
-317.091572
 20
303.858513
30
133.129309
  0
VERTEX
  8
1
  6
CONTINUOUS
 10
-317.110816
 20
303.876126
30
133.121261
  0
SEQEND
  8
0
  0
POLYLINE
  8
1
  6
CONTINUOUS
 66
     1
 70
     0
 210
0.037499
 220
-0.289844
 230
0.956339
 10
0.000000
 20
0.000000
30
241.597833
  0
VERTEX
  8
1
  6
CONTINUOUS
 10
386.197274
 20
55.810470
30
241.597833
  0
VERTEX
  8
1
  6
CONTINUOUS
 10
386.220782
 20
55.767900
30
241.595507
  0
VERTEX
  8
1
  6
CONTINUOUS
 10
386.248187
 20
55.746163
30
241.593127
  0
VERTEX
  8
1
  6
CONTINUOUS
 10
386.291778
 20
55.753982
30
241.593444
  0
VERTEX
  8
1
  6
CONTINUOUS
 10
386.344165
 20
55.766582
30
241.595457
  0
VERTEX
  8
1
  6
CONTINUOUS
 10
386.401179
 20
55.785693
30
241.599992
  0
VERTEX
  8
1
  6
CONTINUOUS
 10
386.427304
 20
55.796653
30
241.589426
  0
VERTEX
  8
1
  6
CONTINUOUS
 10
386.461317
 20
55.803406
30
241.586460
  0
VERTEX
  8
1
  6
CONTINUOUS
 10
386.498056
 20
55.788350
30
241.589257
  0
SEQEND
  8
0
  0
POLYLINE
  8
1
  6
CONTINUOUS
 66
     1
 70
     0
 210
-0.064416
 220
-0.137028
 230
0.988470
 10
0.000000
 20
0.000000
30
215.198525
  0
VERTEX
  8
1
  6
CONTINUOUS
 10
335.097888
 20
228.618787
30
215.198525
  0
VERTEX
  8
1
  6
CONTINUOUS
 10
335.128825
 20
228.603797
30
215.187292
  0
VERTEX
  8
1
  6
CONTINUOUS
 10
335.177001
 20
228.609373
30
215.190802
  0
VERTEX
  8
1
  6
CONTINUOUS
 10
335.217582
 20
228.643900
30
215.195987
  0
VERTEX
  8
1
  6
CONTINUOUS
 10
335.246057
 20
228.671048
30
215.190520
  0
VERTEX
  8
1
  6
CONTINUOUS
 10
335.270038
 20
228.704365
30
215.188908
  0
VERTEX
  8
1
  6
CONTINUOUS
 10
335.284416
 20
228.731617
30
215.186915
  0
VERTEX
  8
1
  6
CONTINUOUS
 10
335.316907
 20
228.757134
30
215.180387
  0
VERTEX
  8
1
  6
CONTINUOUS
 10
335.329397
 20
228.754920
30
215.180727
  0
SEQEND
  8
0
  0
POLYLINE
  8
1
  6
CONTINUOUS
 66
     1
 70
     0
 210
-0.133560
 220
0.109470
 230
0.984976
 10
0.000000
 20
0.000000
30
195.630228
  0
VERTEX
  8
1
  6
CONTINUOUS
 10
-269.670340
 20
316.362060
30
195.630228
  0
VERTEX
  8
1
  6
CONTINUOUS
 10
-269.659550
 20
316.415186
30
195.627046
  0
VERTEX
  8
1
  6
CONTINUOUS
 10
-269.695348
 20
316.458032
30
195.618219
  0
VERTEX
  8
1
  6
CONTINUOUS
 10
-269.732204
 20
316.490823
30
195.631303
  0
VERTEX
  8
1
  6
CONTINUOUS
 10
-269.767995
 20
316.515031
30
195.622679
  0
VERTEX
  8
1
  6
CONTINUOUS
 10
-269.810131
 20
316.537105
30
195.631949
  0
VERTEX
  8
1
  6
CONTINUOUS
 10
-269.852566
 20
316.547096
30
195.625380
  0
VERTEX
  8
1
  6
CONTINUOUS
 10
-269.879217
 20
316.550765
30
195.627363
  0
VERTEX
  8
1
  6
CONTINUOUS
 10
-269.892092
 20
316.568790
30
195.623327
  0
VERTEX
  8
1
  6
CONTINUOUS
 10
-269.897588
 20
316.578085
30
195.621697
  0
SEQEND
  8
0
  0
POLYLINE
  8
1
  6
CONTINUOUS
 66
     1
 70
     0
 210
0.014262
 220
-0.314076
 230
0.949291
 10
0.000000
 20
0.000000
30
230.116545
  0
VERTEX
  8
1
  6
CONTINUOUS
 10
387.202544
 20
91.927165
30
230.116545
  0
VERTEX
  8
1
  6
CONTINUOUS
 10
387.234236
 20
91.882490
30
230.119525
  0
VERTEX
  8
1
  6
CONTINUOUS
 10
387.287363
 20
91.853678
30
230.121343
  0
VERTEX
  8
1
  6
CONTINUOUS
 10
387.333423
 20
91.868337
30
230.116033
  0
VERTEX
  8
1
  6
CONTINUOUS
 10
387.402090
 20
91.889230
30
230.119111
  0
VERTEX
  8
1
  6
CONTINUOUS
 10
387.437828
 20
91.908144
30
230.123754
  0
VERTEX
  8
1
  6
CONTINUOUS
 10
387.466315
 20
91.916738
30
230.120908
  0
VERTEX
  8
1
  6
CONTINUOUS
 10
387.497421
 20
91.920139
30
230.130233
  0
VERTEX
  8
1
  6
CONTINUOUS
 10
387.511715
 20
91.909287
30
230.124284
  0
SEQEND
  8
0
  0
POLYLINE
  8
1
  6
CONTINUOUS
 66
     1
 70
     0
 210
-0.035088
 220
-0.155318
 230
0.987241
 10
0.000000
 20
0.000000
30
225.587132
  0
VERTEX
  8
1
  6
CONTINUOUS
 10
369.800597
 20
154.685795
30
225.587132
  0
VERTEX
  8
1
  6
CONTINUOUS
 10
369.844184
 20
154.661507
30
225.591487
  0
VERTEX
  8
1
  6
CONTINUOUS
 10
369.890896
 20
154.674507
30
225.605994
  0
VERTEX
  8
1
  6
CONTINUOUS
 10
369.929674
 20
154.692628
30
225.591274
  0
VERTEX
  8
1
  6
CONTINUOUS
 10
369.971036
 20
154.726727
30
225.599756
  0
VERTEX
  8
1
  6
CONTINUOUS
 10
369.993176
 20
154.754152
30
225.585721
  0
VERTEX
  8
1
  6
CONTINUOUS
 10
370.028515
 20
154.799478
30
225.594576
  0
VERTEX
  8
1
  6
CONTINUOUS
 10
370.047649
 20
154.818179
30
225.602922
  0
VERTEX
  8
1
  6
CONTINUOUS
 10
370.066557
 20
154.816779
30
225.603584
  0
SEQEND
  8
0
  0
POLYLINE
  8
1
  6
CONTINUOUS
 66
     1
 70
     0
 210
0.083480
 220
-0.282343
 230
0.955674
 10
0.000000
 20
0.000000
30
259.522302
  0
VERTEX
  8
1
  6
CONTINUOUS
 10
380.078609
 20
-2.240113
30
259.522302
  0
VERTEX
  8
1
  6
CONTINUOUS
 10
380.096944
 20
-2.289720
30
259.517272
  0
VERTEX
  8
1
  6
CONTINUOUS
 10
380.139011
 20
-2.320403
30
259.502800
  0
VERTEX
  8
1
  6
CONTINUOUS
 10
380.205372
 20
-2.333760
30
259.503305
  0
VERTEX
  8
1
  6
CONTINUOUS
 10
380.256829
 20
-2.322289
30
259.512862
  0
VERTEX
  8
1
  6
CONTINUOUS
 10
380.292843
 20
-2.302321
30
259.520703
  0
VERTEX
  8
1
  6
CONTINUOUS
 10
380.325381
 20
-2.283684
30
259.517669
  0
VERTEX
  8
1
  6
CONTINUOUS
 10
380.364337
 20
-2.284561
30
259.506654
  0
VERTEX
  8
1
  6
CONTINUOUS
 10
380.380606
 20
-2.296340
30
259.498548
  0
SEQEND
  8
0
  0
POLYLINE
  8
1
  6
CONTINUOUS
 66
     1
 70
     0
 210
-0.140564
 220
-0.017523
 230
0.989917
 10
0.000000
 20
0.000000
30
189.836325
  0
VERTEX
  8
1
  6
CONTINUOUS
 10
15.677999
 20
419.235217
30
189.836325
  0
VERTEX
  8
1
  6
CONTINUOUS
 10
15.723116
 20
419.272657
30
189.834017
  0
VERTEX
  8
1
  6
CONTINUOUS
 10
15.729817
 20
419.319287
30
189.831268
  0
VERTEX
  8
1
  6
CONTINUOUS
 10
15.730311
 20
419.374357
30
189.845176
  0
VERTEX
  8
1
  6
CONTINUOUS
 10
15.702288
 20
419.433418
30
189.828009
  0
VERTEX
  8
1
  6
CONTINUOUS
 10
15.680681
 20
419.470761
30
189.836610
  0
VERTEX
  8
1
  6
CONTINUOUS
 10
15.675712
 20
419.493571
30
189.835089
  0
VERTEX
  8
1
  6
CONTINUOUS
 10
15.681126
 20
419.533596
30
189.834156
  0
SEQEND
  8
0
  0
POLYLINE
  8
1
  6
CONTINUOUS
 66
     1
 70
     0
 210
0.023555
 220
-0.359997
 230
0.932656
 10
0.000000
 20
0.000000
30
228.110355
  0
VERTEX
  8
1
  6
CONTINUOUS
 10
388.663395
 20
95.855383
30
228.110355
  0
VERTEX
  8
1
  6
CONTINUOUS
 10
388.702770
 20
95.801233
30
228.114187
  0
VERTEX
  8
1
  6
CONTINUOUS
 10
388.743704
 20
95.780349
30
228.120415
  0
VERTEX
  8
1
  6
CONTINUOUS
 10
388.824672
 20
95.797272
30
228.122657
  0
VERTEX
  8
1
  6
CONTINUOUS
 10
388.880552
 20
95.821864
30
228.108982
  0
VERTEX
  8
1
  6
CONTINUOUS
 10
388.920938
 20
95.852547
30
228.108215
  0
VERTEX
  8
1
  6
CONTINUOUS
 10
388.973363
 20
95.859450
30
228.121270
  0
VERTEX
  8
1
  6
CONTINUOUS
 10
388.982980
 20
95.854359
30
228.121853
  0
SEQEND
  8
0
  0
POLYLINE
  8
1
  6
CONTINUOUS
 66
     1
 70
     0
 210
0.168589
 220
-0.572987
 230
0.802037
 10
0.000000
 20
0.000000
30
245.132490
  0
VERTEX
  8
1
  6
CONTINUOUS
 10
381.100507
 20
84.934733
30
245.132490
  0
VERTEX
  8
1
  6
CONTINUOUS
 10
381.126881
 20
84.879954
30
245.151769
  0
VERTEX
  8
1
  6
CONTINUOUS
 10
381.171102
 20
84.858005
30
245.154669
  0
VERTEX
  8
1
  6
CONTINUOUS
 10
381.252664
 20
84.861904
30
245.143697
  0
VERTEX
  8
1
  6
CONTINUOUS
 10
381.314921
 20
84.874338
30
245.141429
  0
VERTEX
  8
1
  6
CONTINUOUS
 10
381.363242
 20
84.879709
30
245.155179
  0
VERTEX
  8
1
  6
CONTINUOUS
 10
381.389813
 20
84.864099
30
245.164653
  0
SEQEND
  8
0
  0
POLYLINE
  8
1
  6
CONTINUOUS
 66
     1
 70
     0
 210
0.071035
 220
-0.793180
 230
0.604831
 10
0.000000
 20
0.000000
30
151.401096
  0
VERTEX
  8
1
  6
CONTINUOUS
 10
389.360678
 20
195.555729
30
151.401096
  0
VERTEX
  8
1
  6
CONTINUOUS
 10
389.398815
 20
195.522442
30
151.405694
  0
VERTEX
  8
1
  6
CONTINUOUS
 10
389.467371
 20
195.495141
30
151.407405
  0
VERTEX
  8
1
  6
CONTINUOUS
 10
389.511772
 20
195.509150
30
151.408929
  0
VERTEX
  8
1
  6
CONTINUOUS
 10
389.572729
 20
195.527398
30
151.406301
  0
VERTEX
  8
1
  6
CONTINUOUS
 10
389.590052
 20
195.562522
30
151.402850
  0
VERTEX
  8
1
  6
CONTINUOUS
 10
389.608396
 20
195.591500
30
151.404636
  0
VERTEX
  8
1
  6
CONTINUOUS
 10
389.633435
 20
195.591475
30
151.411802
  0
SEQEND
  8
0
  0
POLYLINE
  8
1
  6
CONTINUOUS
 66
     1
 70
     0
 210
0.000606
 220
-0.522898
 230
0.852395
 10
0.000000
 20
0.000000
30
194.065097
  0
VERTEX
  8
1
  6
CONTINUOUS
 10
388.332882
 20
156.622653
30
194.065097
  0
VERTEX
  8
1
  6
CONTINUOUS
 10
388.367763
 20
156.573869
30
194.052513
  0
VERTEX
  8
1
  6
CONTINUOUS
 10
388.395751
 20
156.539741
30
194.054724
  0
VERTEX
  8
1
  6
CONTINUOUS
 10
388.439293
 20
156.527650
30
194.065684
  0
VERTEX
  8
1
  6
CONTINUOUS
 10
388.500161
 20
156.555143
30
194.064506
  0
VERTEX
  8
1
  6
CONTINUOUS
 10
388.557142
 20
156.578016
30
194.059080
  0
VERTEX
  8
1
  6
CONTINUOUS
 10
388.608102
 20
156.610112
30
194.050523
  0
VERTEX
  8
1
  6
CONTINUOUS
 10
388.636610
 20
156.629073
30
194.041928
  0
VERTEX
  8
1
  6
CONTINUOUS
 10
388.664225
 20
156.636628
30
194.046909
  0
VERTEX
  8
1
  6
CONTINUOUS
 10
388.682766
 20
156.631510
30
194.048531
  0
SEQEND
  8
0
  0
POLYLINE
  8
1
  6
CONTINUOUS
 66
     1
 70
     0
 210
0.049086
 220
-0.327454
 230
0.943591
 10
0.000000
 20
0.000000
30
241.786590
  0
VERTEX
  8
1
  6
CONTINUOUS
 10
389.177375
 20
57.805021
30
241.786590
  0
VERTEX
  8
1
  6
CONTINUOUS
 10
389.207238
 20
57.755356
30
241.781160
  0
VERTEX
  8
1
  6
CONTINUOUS
 10
389.263781
 20
57.752089
30
241.801507
  0
VERTEX
  8
1
  6
CONTINUOUS
 10
389.314255
 20
57.757926
30
241.785743
  0
VERTEX
  8
1
  6
CONTINUOUS
 10
389.370237
 20
57.778396
30
241.779932
  0
VERTEX
  8
1
  6
CONTINUOUS
 10
389.427733
 20
57.800986
30
241.784805
  0
VERTEX
  8
1
  6
CONTINUOUS
 10
389.463630
 20
57.795871
30
241.785229
  0
VERTEX
  8
1
  6
CONTINUOUS
 10
389.476895
 20
57.791518
30
241.786757
  0
SEQEND
  8
0
  0
POLYLINE
  8
1
  6
CONTINUOUS
 66
     1
 70
     0
 210
-0.090296
 220
-0.325660
 230
0.941165
 10
0.000000
 20
0.000000
30
187.027681
  0
VERTEX
  8
1
  6
CONTINUOUS
 10
366.138994
 20
210.811386
30
187.027681
  0
VERTEX
  8
1
  6
CONTINUOUS
 10
366.180793
 20
210.771330
30
187.032896
  0
VERTEX
  8
1
  6
CONTINUOUS
 10
366.247193
 20
210.788163
30
187.047936
  0
VERTEX
  8
1
  6
CONTINUOUS
 10
366.306329
 20
210.831216
30
187.043936
  0
VERTEX
  8
1
  6
CONTINUOUS
 10
366.336068
 20
210.867070
30
187.021436
  0
VERTEX
  8
1
  6
CONTINUOUS
 10
366.372841
 20
210.901368
30
187.021956
  0
VERTEX
  8
1
  6
CONTINUOUS
 10
366.381448
 20
210.924411
30
187.039349
  0
VERTEX
  8
1
  6
CONTINUOUS
 10
366.417017
 20
210.959334
30
187.047893
  0
VERTEX
  8
1
  6
CONTINUOUS
 10
366.445652
 20
210.961184
30
187.048146
  0
SEQEND
  8
0
  0
POLYLINE
  8
1
  6
CONTINUOUS
 66
     1
 70
     0
 210
0.001611
 220
-0.003558
 230
-0.999992
 10
0.000000
 20
0.000000
30
-246.293653
  0
VERTEX
  8
1
  6
CONTINUOUS
 10
-385.218867
 20
30.646888
30
-246.293653
  0
VERTEX
  8
1
  6
CONTINUOUS
 10
-385.223433
 20
31.076976
30
-246.295176
  0
VERTEX
  8
1
  6
CONTINUOUS
 10
-385.490029
 20
31.076821
30
-246.294746
  0
VERTEX
  8
1
  6
CONTINUOUS
 10
-385.485896
 20
30.646731
30
-246.294085
  0
VERTEX
  8
1
  6
CONTINUOUS
 10
-385.213695
 20
30.649041
30
-246.295827
  0
SEQEND
  8
0
  0
POLYLINE
  8
2
  6
CONTINUOUS
 66
     1
 70
     0
 210
0.019526
 220
-0.145547
 230
-0.989159
 10
0.000000
 20
0.000000
30
-241.257545
  0
VERTEX
  8
2
  6
CONTINUOUS
 10
390.033059
 20
57.375767
30
-241.257545
  0
VERTEX
  8
2
  6
CONTINUOUS
 10
390.024932
 20
57.457846
30
-241.245795
  0
VERTEX
  8
2
  6
CONTINUOUS
 10
388.475078
 20
57.268531
30
-241.256456
  0
VERTEX
  8
2
  6
CONTINUOUS
 10
386.254072
 20
56.984384
30
-241.247179
  0
VERTEX
  8
2
  6
CONTINUOUS
 10
383.768818
 20
56.653731
30
-241.253094
  0
VERTEX
  8
2
  6
CONTINUOUS
 10
381.544048
 20
56.351810
30
-241.263899
  0
VERTEX
  8
2
  6
CONTINUOUS
 10
380.044275
 20
56.139953
30
-241.233859
  0
VERTEX
  8
2
  6
CONTINUOUS
 10
378.591053
 20
55.934860
30
-241.248171
  0
VERTEX
  8
2
  6
CONTINUOUS
 10
378.052903
 20
55.850958
30
-241.247980
  0
VERTEX
  8
2
  6
CONTINUOUS
 10
378.070762
 20
55.780571
30
-241.258429
  0
VERTEX
  8
2
  6
CONTINUOUS
 10
379.504006
 20
55.982774
30
-241.248908
  0
VERTEX
  8
2
  6
CONTINUOUS
 10
381.632185
 20
56.292602
30
-241.249575
  0
VERTEX
  8
2
  6
CONTINUOUS
 10
383.780000
 20
56.586292
30
-241.253946
  0
VERTEX
  8
2
  6
CONTINUOUS
 10
385.415570
 20
56.798038
30
-241.238646
  0
VERTEX
  8
2
  6
CONTINUOUS
 10
386.856132
 20
56.986374
30
-241.241650
  0
VERTEX
  8
2
  6
CONTINUOUS
 10
389.315385
 20
57.304648
30
-241.268103
  0
VERTEX
  8
2
  6
CONTINUOUS
 10
390.028846
 20
57.391404
30
-241.260020
  0
VERTEX
  8
2
  6
CONTINUOUS
 10
390.021478
 20
57.461464
30
-241.249619
  0
SEQEND
  8
0
  0
POLYLINE
  8
2
  6
CONTINUOUS
 66
     1
 70
     0
 210
0.021266
 220
-0.050364
 230
-0.998505
 10
0.000000
 20
0.000000
30
-240.001368
  0
VERTEX
  8
2
  6
CONTINUOUS
 10
370.917216
 20
135.851993
30
-240.001368
  0
VERTEX
  8
2
  6
CONTINUOUS
 10
370.893250
 20
135.921892
30
-239.998405
  0
VERTEX
  8
2
  6
CONTINUOUS
 10
369.585113
 20
135.401560
30
-239.997949
  0
VERTEX
  8
2
  6
CONTINUOUS
 10
367.784810
 20
134.644808
30
-239.958159
  0
VERTEX
  8
2
  6
CONTINUOUS
 10
365.721135
 20
133.790383
30
-239.991978
  0
VERTEX
  8
2
  6
CONTINUOUS
 10
365.064376
 20
133.512090
30
-239.989934
  0
VERTEX
  8
2
  6
CONTINUOUS
 10
363.126662
 20
132.689128
30
-240.009503
  0
VERTEX
  8
2
  6
CONTINUOUS
 10
360.910630
 20
131.739817
30
-239.985872
  0
VERTEX
  8
2
  6
CONTINUOUS
 10
359.784551
 20
131.268221
30
-239.998299
  0
VERTEX
  8
2
  6
CONTINUOUS
 10
359.817395
 20
131.195149
30
-240.003164
  0
VERTEX
  8
2
  6
CONTINUOUS
 10
362.613613
 20
132.387243
30
-239.998381
  0
VERTEX
  8
2
  6
CONTINUOUS
 10
365.092087
 20
133.443564
30
-239.997574
  0
VERTEX
  8
2
  6
CONTINUOUS
 10
367.317194
 20
134.379956
30
-239.954946
  0
VERTEX
  8
2
  6
CONTINUOUS
 10
369.636143
 20
135.340490
30
-239.995675
  0
VERTEX
  8
2
  6
CONTINUOUS
 10
370.925864
 20
135.848233
30
-240.002870
  0
VERTEX
  8
2
  6
CONTINUOUS
 10
370.896366
 20
135.922319
30
-239.999246
  0
SEQEND
  8
0
  0
POLYLINE
  8
2
  6
CONTINUOUS
 66
     1
 70
     0
 210
0.021124
 220
0.001824
 230
-0.999775
 10
0.000000
 20
0.000000
30
-238.725019
  0
VERTEX
  8
2
  6
CONTINUOUS
 10
-1.728306
 20
395.807714
30
-238.725019
  0
VERTEX
  8
2
  6
CONTINUOUS
 10
-1.810802
 20
395.805303
30
-238.725070
  0
VERTEX
  8
2
  6
CONTINUOUS
 10
-1.682195
 20
394.290918
30
-238.717920
  0
VERTEX
  8
2
  6
CONTINUOUS
 10
-1.513809
 20
392.044946
30
-238.708164
  0
VERTEX
  8
2
  6
CONTINUOUS
 10
-1.360762
 20
390.020443
30
-238.707086
  0
VERTEX
  8
2
  6
CONTINUOUS
 10
-1.323636
 20
389.528783
30
-238.714493
  0
VERTEX
  8
2
  6
CONTINUOUS
 10
-1.241815
 20
388.582880
30
-238.726785
  0
VERTEX
  8
2
  6
CONTINUOUS
 10
-1.085702
 20
386.931650
30
-238.730305
  0
VERTEX
  8
2
  6
CONTINUOUS
 10
-0.941064
 20
385.223034
30
-238.729863
  0
VERTEX
  8
2
  6
CONTINUOUS
 10
-0.826901
 20
383.800001
30
-238.719050
  0
VERTEX
  8
2
  6
CONTINUOUS
 10
-0.746945
 20
383.811824
30
-238.723978
  0
VERTEX
  8
2
  6
CONTINUOUS
 10
-1.006607
 20
386.843746
30
-238.733463
  0
VERTEX
  8
2
  6
CONTINUOUS
 10
-1.249323
 20
389.535621
30
-238.711759
  0
VERTEX
  8
2
  6
CONTINUOUS
 10
-1.447588
 20
391.960638
30
-238.709088
  0
VERTEX
  8
2
  6
CONTINUOUS
 10
-1.638957
 20
394.500836
30
-238.717784
  0
VERTEX
  8
2
  6
CONTINUOUS
 10
-1.734267
 20
395.811524
30
-238.724938
  0
SEQEND
  8
0
  0
POLYLINE
  8
2
  6
CONTINUOUS
 66
     1
 70
     0
 210
0.020521
 220
-0.063439
 230
-0.997775
 10
0.000000
 20
0.000000
30
-240.564604
  0
VERTEX
  8
2
  6
CONTINUOUS
 10
380.368186
 20
105.490392
30
-240.564604
  0
VERTEX
  8
2
  6
CONTINUOUS
 10
380.349534
 20
105.560230
30
-240.557774
  0
VERTEX
  8
2
  6
CONTINUOUS
 10
378.915827
 20
105.109147
30
-240.552466
  0
VERTEX
  8
2
  6
CONTINUOUS
 10
376.894519
 20
104.489171
30
-240.542878
  0
VERTEX
  8
2
  6
CONTINUOUS
 10
375.842023
 20
104.158312
30
-240.524346
  0
VERTEX
  8
2
  6
CONTINUOUS
 10
374.341689
 20
103.669214
30
-240.539304
  0
VERTEX
  8
2
  6
CONTINUOUS
 10
373.464520
 20
103.392139
30
-240.541389
  0
VERTEX
  8
2
  6
CONTINUOUS
 10
372.773036
 20
103.166640
30
-240.548677
  0
VERTEX
  8
2
  6
CONTINUOUS
 10
371.646092
 20
102.793240
30
-240.561523
  0
VERTEX
  8
2
  6
CONTINUOUS
 10
370.556284
 20
102.437787
30
-240.546796
  0
VERTEX
  8
2
  6
CONTINUOUS
 10
369.375771
 20
102.052794
30
-240.551339
  0
VERTEX
  8
2
  6
CONTINUOUS
 10
368.884581
 20
101.896257
30
-240.555746
  0
VERTEX
  8
2
  6
CONTINUOUS
 10
368.912449
 20
101.818847
30
-240.560919
  0
VERTEX
  8
2
  6
CONTINUOUS
 10
370.732993
 20
102.409919
30
-240.542607
  0
VERTEX
  8
2
  6
CONTINUOUS
 10
371.919395
 20
102.799706
30
-240.567576
  0
VERTEX
  8
2
  6
CONTINUOUS
 10
373.227965
 20
103.228398
30
-240.553629
  0
VERTEX
  8
2
  6
CONTINUOUS
 10
374.366174
 20
103.594746
30
-240.536931
  0
VERTEX
  8
2
  6
CONTINUOUS
 10
375.482026
 20
103.963346
30
-240.526566
  0
VERTEX
  8
2
  6
CONTINUOUS
 10
376.656701
 20
104.335332
30
-240.519003
  0
VERTEX
  8
2
  6
CONTINUOUS
 10
378.194465
 20
104.817074
30
-240.552096
  0
VERTEX
  8
2
  6
CONTINUOUS
 10
379.774328
 20
105.307058
30
-240.558264
  0
VERTEX
  8
2
  6
CONTINUOUS
 10
380.378799
 20
105.486778
30
-240.560953
  0
VERTEX
  8
2
  6
CONTINUOUS
 10
380.357973
 20
105.557868
30
-240.556203
  0
SEQEND
  8
0
  0
POLYLINE
  8
2
  6
CONTINUOUS
 66
     1
 70
     0
 210
1.000000
 220
0.000000
 230
0.000000
 10
0.000000
 20
0.000000
30
383.067724
  0
VERTEX
  8
2
  6
CONTINUOUS
 10
32.124617
 20
246.908915
30
383.067724
  0
VERTEX
  8
2
  6
CONTINUOUS
 10
32.059046
 20
246.910208
30
383.065959
  0
SEQEND
  8
0
  0
POLYLINE
  8
2
  6
CONTINUOUS
 66
     1
 70
     0
 210
1.000000
 220
0.000000
 230
0.000000
 10
0.000000
 20
0.000000
30
383.064091
  0
VERTEX
  8
2
  6
CONTINUOUS
 10
31.815315
 20
246.934366
30
383.064091
  0
VERTEX
  8
2
  6
CONTINUOUS
 10
31.754057
 20
246.927895
30
383.064056
  0
SEQEND
  8
0
  0
POLYLINE
  8
2
  6
CONTINUOUS
 66
     1
 70
     0
 210
1.000000
 220
0.000000
 230
0.000000
 10
0.000000
 20
0.000000
30
383.067698
  0
VERTEX
  8
2
  6
CONTINUOUS
 10
31.345532
 20
246.928326
30
383.067698
  0
VERTEX
  8
2
  6
CONTINUOUS
 10
31.272197
 20
246.928326
30
383.066360
  0
SEQEND
  8
0
  0
POLYLINE
  8
2
  6
CONTINUOUS
 66
     1
 70
     0
 210
1.000000
 220
0.000000
 230
0.000000
 10
0.000000
 20
0.000000
30
383.102675
  0
VERTEX
  8
2
  6
CONTINUOUS
 10
30.668666
 20
246.948170
30
383.102675
  0
VERTEX
  8
2
  6
CONTINUOUS
 10
30.600939
 20
246.948602
30
383.100477
  0
SEQEND
  8
0
  0
POLYLINE
  8
2
  6
CONTINUOUS
 66
     1
 70
     0
 210
1.000000
 220
0.000000
 230
0.000000
 10
0.000000
 20
0.000000
30
383.122612
  0
VERTEX
  8
2
  6
CONTINUOUS
 10
30.092753
 20
246.964131
30
383.122612
  0
VERTEX
  8
2
  6
CONTINUOUS
 10
30.023731
 20
246.964994
30
383.122140
  0
SEQEND
  8
0
  0
POLYLINE
  8
2
  6
CONTINUOUS
 66
     1
 70
     0
 210
1.000000
 220
0.000000
 230
0.000000
 10
0.000000
 20
0.000000
30
383.130025
  0
VERTEX
  8
2
  6
CONTINUOUS
 10
29.496140
 20
246.983544
30
383.130025
  0
VERTEX
  8
2
  6
CONTINUOUS
 10
29.422804
 20
246.983544
30
383.129984
  0
SEQEND
  8
0
  0
LINE
  8
1
  6
CONTINUOUS
 10
379.784240
 20
31.049803
 30
246.727731
 11
380.100874
 21
31.041420
 31
246.726438
  0
LINE
  8
1
  6
CONTINUOUS
 10
379.764073
 20
31.936250
 30
245.423427
 11
379.451172
 21
31.937750
 31
245.423427
  0
POLYLINE
  8
1
  6
CONTINUOUS
 66
     1
 70
     0
 210
1.000000
 220
0.000000
 230
0.000000
 10
0.000000
 20
0.000000
30
379.763379
  0
VERTEX
  8
1
  6
CONTINUOUS
 10
31.522184
 20
246.725143
30
379.763379
  0
VERTEX
  8
1
  6
CONTINUOUS
 10
31.936323
 20
246.725143
30
379.765648
  0
SEQEND
  8
0
  0
POLYLINE
  8
1
  6
CONTINUOUS
 66
     1
 70
     0
 210
0.000000
 220
0.000000
 230
-1.000000
 10
0.000000
 20
0.000000
30
-246.725143
  0
VERTEX
  8
1
  6
CONTINUOUS
 10
-379.762414
 20
31.525932
30
-246.725143
  0
VERTEX
  8
1
  6
CONTINUOUS
 10
-379.454511
 20
31.529698
30
-246.725143
  0
VERTEX
  8
1
  6
CONTINUOUS
 10
-379.451511
 20
31.937611
30
-246.725143
  0
SEQEND
  8
0
  0
POLYLINE
  8
1
  6
CONTINUOUS
 66
     1
 70
     0
 10
0.000000
 20
0.000000
30
246.725143
  0
VERTEX
  8
1
  6
CONTINUOUS
 10
379.765795
 20
31.963258
30
246.725143
  0
VERTEX
  8
1
  6
CONTINUOUS
 10
379.765795
 20
31.963491
30
246.725143
  0
VERTEX
  8
1
  6
CONTINUOUS
 10
379.451315
 20
31.964107
30
246.725143
  0
VERTEX
  8
1
  6
CONTINUOUS
 10
379.451315
 20
31.964107
30
246.725143
  0
SEQEND
  8
0
  0
POLYLINE
  8
1
  6
CONTINUOUS
 66
     1
 70
     0
 210
0.000010
 220
-0.000541
 230
1.000000
 10
0.000000
 20
0.000000
30
246.711953
  0
VERTEX
  8
1
  6
CONTINUOUS
 10
380.089418
 20
31.677314
30
246.711953
  0
VERTEX
  8
1
  6
CONTINUOUS
 10
380.084617
 20
32.069667
30
246.711741
  0
VERTEX
  8
1
  6
CONTINUOUS
 10
379.789547
 20
32.066389
30
246.711740
  0
VERTEX
  8
1
  6
CONTINUOUS
 10
379.793198
 20
31.671669
30
246.711953
  0
VERTEX
  8
1
  6
CONTINUOUS
 10
380.090076
 20
31.678310
30
246.711528
  0
SEQEND
  8
0
  0
POLYLINE
  8
1
  6
CONTINUOUS
 66
     1
 70
     0
 210
-0.000006
 220
-0.000502
 230
1.000000
 10
0.000000
 20
0.000000
30
246.705805
  0
VERTEX
  8
1
  6
CONTINUOUS
 10
379.408472
 20
31.652374
30
246.705805
  0
VERTEX
  8
1
  6
CONTINUOUS
 10
379.393188
 20
32.072985
30
246.705594
  0
VERTEX
  8
1
  6
CONTINUOUS
 10
379.130474
 20
32.074003
30
246.705595
  0
VERTEX
  8
1
  6
CONTINUOUS
 10
379.129366
 20
31.655558
30
246.705805
  0
VERTEX
  8
1
  6
CONTINUOUS
 10
379.408422
 20
31.653755
30
246.705396
  0
SEQEND
  8
0
  0
POLYLINE
  8
1
  6
CONTINUOUS
 66
     1
 70
     0
 210
0.000000
 220
0.000000
 230
-1.000000
 10
0.000000
 20
0.000000
30
-246.689338
  0
VERTEX
  8
1
  6
CONTINUOUS
 10
-379.760897
 20
30.969148
30
-246.689338
  0
VERTEX
  8
1
  6
CONTINUOUS
 10
-379.761105
 20
30.588233
30
-246.689338
  0
VERTEX
  8
1
  6
CONTINUOUS
 10
-379.456113
 20
30.584961
30
-246.689338
  0
VERTEX
  8
1
  6
CONTINUOUS
 10
-379.452161
 20
30.979876
30
-246.689338
  0
SEQEND
  8
0
  0
POLYLINE
  8
1
  6
CONTINUOUS
 66
     1
 70
     0
 210
0.000000
 220
0.000000
 230
-1.000000
 10
0.000000
 20
0.000000
30
-246.689338
  0
VERTEX
  8
1
  6
CONTINUOUS
 10
-379.396676
 20
30.980442
30
-246.689338
  0
VERTEX
  8
1
  6
CONTINUOUS
 10
-379.400885
 20
30.567306
30
-246.689338
  0
VERTEX
  8
1
  6
CONTINUOUS
 10
-379.127819
 20
30.569623
30
-246.689338
  0
VERTEX
  8
1
  6
CONTINUOUS
 10
-379.131233
 20
30.980706
30
-246.689338
  0
SEQEND
  8
0
  0
POLYLINE
  8
1
  6
CONTINUOUS
 66
     1
 70
     0
 210
-0.003079
 220
0.003421
 230
0.999989
 10
0.000000
 20
0.000000
30
245.661201
  0
VERTEX
  8
1
  6
CONTINUOUS
 10
379.874317
 20
30.210139
30
245.661201
  0
VERTEX
  8
1
  6
CONTINUOUS
 10
380.167122
 20
30.204999
30
245.660282
  0
VERTEX
  8
1
  6
CONTINUOUS
 10
380.171268
 20
30.654500
30
245.661807
  0
VERTEX
  8
1
  6
CONTINUOUS
 10
379.880936
 20
30.651657
30
245.659671
  0
VERTEX
  8
1
  6
CONTINUOUS
 10
379.874309
 20
30.209330
30
245.662433
  0
SEQEND
  8
0
  0
POLYLINE
  8
1
  6
CONTINUOUS
 66
     1
 70
     0
 210
-0.012325
 220
-0.007731
 230
-0.999894
 10
0.000000
 20
0.000000
30
-251.615378
  0
VERTEX
  8
1
  6
CONTINUOUS
 10
-376.392758
 20
29.110747
30
-251.615378
  0
VERTEX
  8
1
  6
CONTINUOUS
 10
-376.389213
 20
29.550368
30
-251.612262
  0
VERTEX
  8
1
  6
CONTINUOUS
 10
-376.689012
 20
29.554480
30
-251.615557
  0
VERTEX
  8
1
  6
CONTINUOUS
 10
-376.689180
 20
29.105421
30
-251.612088
  0
VERTEX
  8
1
  6
CONTINUOUS
 10
-376.392753
 20
29.110691
30
-251.615734
  0
SEQEND
  8
0
  0
POLYLINE
  8
1
  6
CONTINUOUS
 66
     1
 70
     0
 210
1.000000
 220
0.000000
 230
0.000000
 10
0.000000
 20
0.000000
30
379.100122
  0
VERTEX
  8
1
  6
CONTINUOUS
 10
30.980737
 20
246.723849
30
379.100122
  0
VERTEX
  8
1
  6
CONTINUOUS
 10
30.979726
 20
246.723849
30
380.115280
  0
SEQEND
  8
0
  0
POLYLINE
  8
1
  6
CONTINUOUS
 66
     1
 70
     0
 10
0.000000
 20
0.000000
30
246.689338
  0
VERTEX
  8
1
  6
CONTINUOUS
 10
379.795840
 20
30.967832
30
246.689338
  0
VERTEX
  8
1
  6
CONTINUOUS
 10
379.795610
 20
30.575702
30
246.689338
  0
VERTEX
  8
1
  6
CONTINUOUS
 10
380.110956
 20
30.579399
30
246.689338
  0
VERTEX
  8
1
  6
CONTINUOUS
 10
380.103931
 20
30.979956
30
246.689338
  0
SEQEND
  8
0
  0
POLYLINE
  8
1
  6
CONTINUOUS
 66
     1
 70
     0
 210
-0.028389
 220
0.012036
 230
0.999524
 10
0.000000
 20
0.000000
30
236.308812
  0
VERTEX
  8
1
  6
CONTINUOUS
 10
-175.943062
 20
345.911669
30
236.308812
  0
VERTEX
  8
1
  6
CONTINUOUS
 10
-178.062084
 20
345.026222
30
236.299012
  0
VERTEX
  8
1
  6
CONTINUOUS
 10
-177.536113
 20
343.758993
30
236.311347
  0
VERTEX
  8
1
  6
CONTINUOUS
 10
-175.419400
 20
344.646919
30
236.296470
  0
VERTEX
  8
1
  6
CONTINUOUS
 10
-175.943942
 20
345.911459
30
236.313895
  0
SEQEND
  8
0
  0
POLYLINE
  8
1
  6
CONTINUOUS
 66
     1
 70
     0
 210
0.007036
 220
-0.037434
 230
0.999274
 10
0.000000
 20
0.000000
30
248.503281
  0
VERTEX
  8
1
  6
CONTINUOUS
 10
378.930033
 20
-31.992820
30
248.503281
  0
VERTEX
  8
1
  6
CONTINUOUS
 10
378.919226
 20
-32.050255
30
248.501147
  0
VERTEX
  8
1
  6
CONTINUOUS
 10
379.121888
 20
-32.083586
30
248.503281
  0
VERTEX
  8
1
  6
CONTINUOUS
 10
379.133005
 20
-32.027603
30
248.501147
  0
SEQEND
  8
0
  0
POLYLINE
  8
1
  6
CONTINUOUS
 66
     1
 70
     0
 210
0.007968
 220
-0.917672
 230
-0.397259
 10
0.000000
 20
0.000000
30
-122.030816
  0
VERTEX
  8
1
  6
CONTINUOUS
 10
378.321896
 20
216.535384
30
-122.030816
  0
VERTEX
  8
1
  6
CONTINUOUS
 10
378.323430
 20
216.162799
30
-121.994175
  0
VERTEX
  8
1
  6
CONTINUOUS
 10
379.094713
 20
216.171748
30
-121.989789
  0
VERTEX
  8
1
  6
CONTINUOUS
 10
379.980806
 20
216.230068
30
-122.013605
  0
VERTEX
  8
1
  6
CONTINUOUS
 10
380.853903
 20
216.227794
30
-122.004742
  0
VERTEX
  8
1
  6
CONTINUOUS
 10
381.920701
 20
216.255240
30
-122.008668
  0
VERTEX
  8
1
  6
CONTINUOUS
 10
382.894375
 20
216.290406
30
-122.022989
  0
VERTEX
  8
1
  6
CONTINUOUS
 10
383.606596
 20
216.280177
30
-122.015127
  0
VERTEX
  8
1
  6
CONTINUOUS
 10
384.399918
 20
216.279972
30
-122.011257
  0
VERTEX
  8
1
  6
CONTINUOUS
 10
385.627339
 20
216.310827
30
-122.033369
  0
VERTEX
  8
1
  6
CONTINUOUS
 10
386.714447
 20
216.340762
30
-122.042399
  0
VERTEX
  8
1
  6
CONTINUOUS
 10
387.789034
 20
216.355727
30
-122.043664
  0
VERTEX
  8
1
  6
CONTINUOUS
 10
388.446390
 20
216.352287
30
-122.029893
  0
VERTEX
  8
1
  6
CONTINUOUS
 10
388.487677
 20
216.665062
30
-121.997989
  0
VERTEX
  8
1
  6
CONTINUOUS
 10
388.103307
 20
216.654606
30
-121.994996
  0
VERTEX
  8
1
  6
CONTINUOUS
 10
387.475727
 20
216.640224
30
-122.002160
  0
VERTEX
  8
1
  6
CONTINUOUS
 10
386.585039
 20
216.614962
30
-122.010563
  0
VERTEX
  8
1
  6
CONTINUOUS
 10
385.824478
 20
216.603252
30
-122.006124
  0
VERTEX
  8
1
  6
CONTINUOUS
 10
384.940688
 20
216.578187
30
-122.014074
  0
VERTEX
  8
1
  6
CONTINUOUS
 10
383.756132
 20
216.590122
30
-122.028855
  0
VERTEX
  8
1
  6
CONTINUOUS
 10
382.979765
 20
216.565732
30
-122.037420
  0
VERTEX
  8
1
  6
CONTINUOUS
 10
381.588123
 20
216.548016
30
-122.038166
  0
VERTEX
  8
1
  6
CONTINUOUS
 10
380.699521
 20
216.506053
30
-122.030858
  0
VERTEX
  8
1
  6
CONTINUOUS
 10
379.745182
 20
216.484901
30
-122.013478
  0
VERTEX
  8
1
  6
CONTINUOUS
 10
378.321896
 20
216.482572
30
-122.007954
  0
SEQEND
  8
0
  0
POLYLINE
  8
1
  6
CONTINUOUS
 66
     1
 70
     0
 210
0.008069
 220
-0.917671
 230
-0.397259
 10
0.000000
 20
0.000000
30
-121.988846
  0
VERTEX
  8
1
  6
CONTINUOUS
 10
378.324915
 20
216.518142
30
-121.988846
  0
VERTEX
  8
1
  6
CONTINUOUS
 10
378.326320
 20
216.179536
30
-121.955547
  0
VERTEX
  8
1
  6
CONTINUOUS
 10
379.097603
 20
216.188519
30
-121.951083
  0
VERTEX
  8
1
  6
CONTINUOUS
 10
379.983696
 20
216.246878
30
-121.974809
  0
VERTEX
  8
1
  6
CONTINUOUS
 10
380.856792
 20
216.244643
30
-121.965857
  0
VERTEX
  8
1
  6
CONTINUOUS
 10
381.923589
 20
216.272135
30
-121.969674
  0
VERTEX
  8
1
  6
CONTINUOUS
 10
382.897263
 20
216.307344
30
-121.983896
  0
VERTEX
  8
1
  6
CONTINUOUS
 10
383.609483
 20
216.297146
30
-121.975962
  0
VERTEX
  8
1
  6
CONTINUOUS
 10
384.402805
 20
216.296976
30
-121.972010
  0
VERTEX
  8
1
  6
CONTINUOUS
 10
385.630227
 20
216.327886
30
-121.993997
  0
VERTEX
  8
1
  6
CONTINUOUS
 10
386.717335
 20
216.357869
30
-122.002917
  0
VERTEX
  8
1
  6
CONTINUOUS
 10
387.791921
 20
216.372881
30
-122.004072
  0
VERTEX
  8
1
  6
CONTINUOUS
 10
388.449276
 20
216.369470
30
-121.990235
  0
VERTEX
  8
1
  6
CONTINUOUS
 10
388.490546
 20
216.682247
30
-121.958326
  0
VERTEX
  8
1
  6
CONTINUOUS
 10
388.106176
 20
216.671774
30
-121.955372
  0
VERTEX
  8
1
  6
CONTINUOUS
 10
387.478598
 20
216.657364
30
-121.962600
  0
VERTEX
  8
1
  6
CONTINUOUS
 10
386.587912
 20
216.632063
30
-121.971094
  0
VERTEX
  8
1
  6
CONTINUOUS
 10
385.827350
 20
216.620319
30
-121.966732
  0
VERTEX
  8
1
  6
CONTINUOUS
 10
384.943562
 20
216.595216
30
-121.974772
  0
VERTEX
  8
1
  6
CONTINUOUS
 10
383.759007
 20
216.607098
30
-121.989674
  0
VERTEX
  8
1
  6
CONTINUOUS
 10
382.982643
 20
216.582674
30
-121.998318
  0
VERTEX
  8
1
  6
CONTINUOUS
 10
381.591002
 20
216.564896
30
-121.999205
  0
VERTEX
  8
1
  6
CONTINUOUS
 10
380.702400
 20
216.522894
30
-121.991988
  0
VERTEX
  8
1
  6
CONTINUOUS
 10
379.748061
 20
216.501701
30
-121.974705
  0
VERTEX
  8
1
  6
CONTINUOUS
 10
378.324774
 20
216.499309
30
-121.969326
  0
SEQEND
  8
0
  0
POLYLINE
  8
1
  6
CONTINUOUS
 66
     1
 70
     0
 210
-0.013953
 220
-0.064181
 230
0.997841
 10
0.000000
 20
0.000000
30
239.199559
  0
VERTEX
  8
1
  6
CONTINUOUS
 10
372.099480
 20
126.331368
30
239.199559
  0
VERTEX
  8
1
  6
CONTINUOUS
 10
371.746164
 20
126.251058
30
239.206141
  0
VERTEX
  8
1
  6
CONTINUOUS
 10
370.435542
 20
125.969452
30
239.200036
  0
VERTEX
  8
1
  6
CONTINUOUS
 10
369.092457
 20
125.682439
30
239.218927
  0
VERTEX
  8
1
  6
CONTINUOUS
 10
367.731244
 20
125.390257
30
239.219136
  0
VERTEX
  8
1
  6
CONTINUOUS
 10
365.713505
 20
124.934960
30
239.210628
  0
VERTEX
  8
1
  6
CONTINUOUS
 10
363.002233
 20
124.335010
30
239.199538
  0
VERTEX
  8
1
  6
CONTINUOUS
 10
363.062329
 20
124.036200
30
239.219679
  0
SEQEND
  8
0
  0
POLYLINE
  8
1
  6
CONTINUOUS
 66
     1
 70
     0
 210
-0.001476
 220
-0.010285
 230
-0.999946
 10
0.000000
 20
0.000000
30
-247.634956
  0
VERTEX
  8
1
  6
CONTINUOUS
 10
-381.619409
 20
28.980307
30
-247.634956
  0
VERTEX
  8
1
  6
CONTINUOUS
 10
-381.623978
 20
29.399220
30
-247.633233
  0
VERTEX
  8
1
  6
CONTINUOUS
 10
-381.916459
 20
29.400770
30
-247.633681
  0
VERTEX
  8
1
  6
CONTINUOUS
 10
-381.915339
 20
28.976686
30
-247.634493
  0
VERTEX
  8
1
  6
CONTINUOUS
 10
-381.621589
 20
28.980208
30
-247.632432
  0
SEQEND
  8
0
  0
POLYLINE
  8
1
  6
CONTINUOUS
 66
     1
 70
     0
 210
0.006780
 220
-0.020971
 230
-0.999757
 10
0.000000
 20
0.000000
30
-244.776288
  0
VERTEX
  8
1
  6
CONTINUOUS
 10
373.114861
 20
92.910930
30
-244.776288
  0
VERTEX
  8
1
  6
CONTINUOUS
 10
372.849058
 20
92.819794
30
-244.765588
  0
VERTEX
  8
1
  6
CONTINUOUS
 10
372.976565
 20
92.427623
30
-244.771214
  0
VERTEX
  8
1
  6
CONTINUOUS
 10
373.246036
 20
92.512659
30
-244.770633
  0
VERTEX
  8
1
  6
CONTINUOUS
 10
373.122026
 20
92.888956
30
-244.765941
  0
SEQEND
  8
0
  0
POLYLINE
  8
1
  6
CONTINUOUS
 66
     1
 70
     0
 210
0.005753
 220
-0.020338
 230
-0.999777
 10
0.000000
 20
0.000000
30
-245.152967
  0
VERTEX
  8
1
  6
CONTINUOUS
 10
376.085508
 20
78.812530
30
-245.152967
  0
VERTEX
  8
1
  6
CONTINUOUS
 10
375.829781
 20
78.735311
30
-245.142518
  0
VERTEX
  8
1
  6
CONTINUOUS
 10
375.942678
 20
78.338683
30
-245.147883
  0
VERTEX
  8
1
  6
CONTINUOUS
 10
376.215112
 20
78.413685
30
-245.147591
  0
VERTEX
  8
1
  6
CONTINUOUS
 10
376.098767
 20
78.816309
30
-245.142891
  0
SEQEND
  8
0
  0
POLYLINE
  8
1
  6
CONTINUOUS
 66
     1
 70
     0
 210
-0.000754
 220
-0.034759
 230
-0.999395
 10
0.000000
 20
0.000000
30
-247.996899
  0
VERTEX
  8
1
  6
CONTINUOUS
 10
381.561406
 20
-31.212345
30
-247.996899
  0
VERTEX
  8
1
  6
CONTINUOUS
 10
381.555539
 20
-31.633529
30
-247.999033
  0
VERTEX
  8
1
  6
CONTINUOUS
 10
381.833739
 20
-31.638550
30
-247.998777
  0
VERTEX
  8
1
  6
CONTINUOUS
 10
381.839797
 20
-31.208286
30
-247.997190
  0
VERTEX
  8
1
  6
CONTINUOUS
 10
381.561501
 20
-31.205424
30
-248.000620
  0
SEQEND
  8
0
  0
POLYLINE
  8
1
  6
CONTINUOUS
 66
     1
 70
     0
 210
-0.006491
 220
-0.017595
 230
-0.999824
 10
0.000000
 20
0.000000
30
-249.749361
  0
VERTEX
  8
1
  6
CONTINUOUS
 10
347.595050
 20
-156.658570
30
-249.749361
  0
VERTEX
  8
1
  6
CONTINUOUS
 10
347.315775
 20
-156.563101
30
-249.747570
  0
VERTEX
  8
1
  6
CONTINUOUS
 10
347.165279
 20
-156.974317
30
-249.749675
  0
VERTEX
  8
1
  6
CONTINUOUS
 10
347.427875
 20
-157.075215
30
-249.747253
  0
VERTEX
  8
1
  6
CONTINUOUS
 10
347.596515
 20
-156.659059
30
-249.749985
  0
SEQEND
  8
0
  0
POLYLINE
  8
1
  6
CONTINUOUS
 66
     1
 70
     0
 210
0.028350
 220
-0.035541
 230
-0.998966
 10
0.000000
 20
0.000000
30
-236.797830
  0
VERTEX
  8
1
  6
CONTINUOUS
 10
318.208371
 20
225.106126
30
-236.797830
  0
VERTEX
  8
1
  6
CONTINUOUS
 10
317.975721
 20
224.922508
30
-236.799950
  0
VERTEX
  8
1
  6
CONTINUOUS
 10
318.237106
 20
224.578279
30
-236.800070
  0
VERTEX
  8
1
  6
CONTINUOUS
 10
318.474405
 20
224.762360
30
-236.797739
  0
VERTEX
  8
1
  6
CONTINUOUS
 10
318.206487
 20
225.108761
30
-236.802269
  0
SEQEND
  8
0
  0
POLYLINE
  8
1
  6
CONTINUOUS
 66
     1
 70
     0
 210
0.004650
 220
-0.023320
 230
-0.999717
 10
0.000000
 20
0.000000
30
-245.651613
  0
VERTEX
  8
1
  6
CONTINUOUS
 10
381.291523
 20
50.228306
30
-245.651613
  0
VERTEX
  8
1
  6
CONTINUOUS
 10
381.010999
 20
50.165411
30
-245.654788
  0
VERTEX
  8
1
  6
CONTINUOUS
 10
381.095859
 20
49.747604
30
-245.654368
  0
VERTEX
  8
1
  6
CONTINUOUS
 10
381.386381
 20
49.806114
30
-245.652114
  0
VERTEX
  8
1
  6
CONTINUOUS
 10
381.291523
 20
50.228435
30
-245.657002
  0
SEQEND
  8
0
  0
POLYLINE
  8
1
  6
CONTINUOUS
 66
     1
 70
     0
 210
-0.000123
 220
0.017895
 230
0.999840
 10
0.000000
 20
0.000000
30
247.192492
  0
VERTEX
  8
1
  6
CONTINUOUS
 10
-381.851095
 20
-23.951263
30
247.192492
  0
VERTEX
  8
1
  6
CONTINUOUS
 10
-381.844194
 20
-23.545441
30
247.184798
  0
VERTEX
  8
1
  6
CONTINUOUS
 10
-382.125438
 20
-23.541486
30
247.192492
  0
VERTEX
  8
1
  6
CONTINUOUS
 10
-382.127202
 20
-23.946256
30
247.184798
  0
SEQEND
  8
0
  0
POLYLINE
  8
1
  6
CONTINUOUS
 66
     1
 70
     0
 210
-0.035584
 220
0.002408
 230
0.999364
 10
0.000000
 20
0.000000
30
233.051862
  0
VERTEX
  8
1
  6
CONTINUOUS
 10
-56.701597
 20
387.565002
30
233.051862
  0
VERTEX
  8
1
  6
CONTINUOUS
 10
-56.306596
 20
387.582869
30
233.052873
  0
VERTEX
  8
1
  6
CONTINUOUS
 10
-56.322336
 20
387.901491
30
233.051862
  0
VERTEX
  8
1
  6
CONTINUOUS
 10
-56.719511
 20
387.873180
30
233.052873
  0
SEQEND
  8
0
  0
POLYLINE
  8
1
  6
CONTINUOUS
 66
     1
 70
     0
 210
0.000000
 220
0.000000
 230
-1.000000
 10
0.000000
 20
0.000000
30
-246.731183
  0
VERTEX
  8
1
  6
CONTINUOUS
 10
-382.606208
 20
30.580075
30
-246.731183
  0
VERTEX
  8
1
  6
CONTINUOUS
 10
-382.309303
 20
30.581128
30
-246.731183
  0
VERTEX
  8
1
  6
CONTINUOUS
 10
-382.323386
 20
30.982259
30
-246.731183
  0
SEQEND
  8
0
  0
LINE
  8
1
  6
CONTINUOUS
 10
382.601473
 20
30.981399
 30
246.731183
 11
382.606208
 21
30.580075
 31
246.731183
  0
LINE
  8
1
  6
CONTINUOUS
 10
382.638202
 20
30.981287
 30
246.776213
 11
381.592395
 21
30.984521
 31
246.745634
  0
POLYLINE
  8
1
  6
CONTINUOUS
 66
     1
 70
     0
 210
0.022161
 220
-0.031624
 230
-0.999254
 10
0.000000
 20
0.000000
30
-239.101681
  0
VERTEX
  8
1
  6
CONTINUOUS
 10
332.695775
 20
204.024825
30
-239.101681
  0
VERTEX
  8
1
  6
CONTINUOUS
 10
332.695775
 20
204.024825
30
-239.101681
  0
VERTEX
  8
1
  6
CONTINUOUS
 10
332.938755
 20
203.661876
30
-239.105346
  0
VERTEX
  8
1
  6
CONTINUOUS
 10
333.161897
 20
203.820123
30
-239.104844
  0
VERTEX
  8
1
  6
CONTINUOUS
 10
332.903350
 20
204.198554
30
-239.102306
  0
VERTEX
  8
1
  6
CONTINUOUS
 10
332.684199
 20
204.042366
30
-239.107932
  0
SEQEND
  8
0
  0
POLYLINE
  8
1
  6
CONTINUOUS
 66
     1
 70
     0
 210
0.022703
 220
-0.031179
 230
-0.999256
 10
0.000000
 20
0.000000
30
-238.879673
  0
VERTEX
  8
1
  6
CONTINUOUS
 10
329.101834
 20
210.023752
30
-238.879673
  0
VERTEX
  8
1
  6
CONTINUOUS
 10
329.363237
 20
209.648183
30
-238.883315
  0
VERTEX
  8
1
  6
CONTINUOUS
 10
329.583477
 20
209.810445
30
-238.882665
  0
VERTEX
  8
1
  6
CONTINUOUS
 10
329.318117
 20
210.184132
30
-238.880328
  0
VERTEX
  8
1
  6
CONTINUOUS
 10
329.115276
 20
210.033952
30
-238.885740
  0
SEQEND
  8
0
  0
POLYLINE
  8
1
  6
CONTINUOUS
 66
     1
 70
     0
 210
0.000767
 220
0.000011
 230
-1.000000
 10
0.000000
 20
0.000000
30
-246.507981
  0
VERTEX
  8
1
  6
CONTINUOUS
 10
-384.674476
 20
31.522504
30
-246.507981
  0
VERTEX
  8
1
  6
CONTINUOUS
 10
-384.668266
 20
31.963815
30
-246.508413
  0
VERTEX
  8
1
  6
CONTINUOUS
 10
-384.952117
 20
31.962354
30
-246.508195
  0
VERTEX
  8
1
  6
CONTINUOUS
 10
-384.951855
 20
31.517595
30
-246.508200
  0
VERTEX
  8
1
  6
CONTINUOUS
 10
-384.674472
 20
31.522801
30
-246.508413
  0
SEQEND
  8
0
  0
POLYLINE
  8
1
  6
CONTINUOUS
 66
     1
 70
     0
 210
0.000767
 220
0.000044
 230
-1.000000
 10
0.000000
 20
0.000000
30
-246.506685
  0
VERTEX
  8
1
  6
CONTINUOUS
 10
-384.674626
 20
31.531048
30
-246.506685
  0
VERTEX
  8
1
  6
CONTINUOUS
 10
-384.668421
 20
31.972063
30
-246.507102
  0
VERTEX
  8
1
  6
CONTINUOUS
 10
-384.952271
 20
31.970601
30
-246.506884
  0
VERTEX
  8
1
  6
CONTINUOUS
 10
-384.952010
 20
31.525843
30
-246.506904
  0
VERTEX
  8
1
  6
CONTINUOUS
 10
-384.693869
 20
31.530687
30
-246.507102
  0
SEQEND
  8
0
  0
POLYLINE
  8
1
  6
CONTINUOUS
 66
     1
 70
     0
 210
0.008469
 220
-0.017971
 230
-0.999803
 10
0.000000
 20
0.000000
30
-244.059909
  0
VERTEX
  8
1
  6
CONTINUOUS
 10
361.457678
 20
140.425751
30
-244.059909
  0
VERTEX
  8
1
  6
CONTINUOUS
 10
361.277085
 20
140.835694
30
-244.057372
  0
VERTEX
  8
1
  6
CONTINUOUS
 10
361.027095
 20
140.712429
30
-244.057233
  0
VERTEX
  8
1
  6
CONTINUOUS
 10
361.212273
 20
140.308950
30
-244.060072
  0
VERTEX
  8
1
  6
CONTINUOUS
 10
361.458026
 20
140.424852
30
-244.054466
  0
SEQEND
  8
0
  0
POLYLINE
  8
1
  6
CONTINUOUS
 66
     1
 70
     0
 210
0.008490
 220
-0.017016
 230
-0.999819
 10
0.000000
 20
0.000000
30
-244.026006
  0
VERTEX
  8
1
  6
CONTINUOUS
 10
358.334269
 20
148.270618
30
-244.026006
  0
VERTEX
  8
1
  6
CONTINUOUS
 10
358.144182
 20
148.677203
30
-244.023892
  0
VERTEX
  8
1
  6
CONTINUOUS
 10
357.897013
 20
148.548376
30
-244.023753
  0
VERTEX
  8
1
  6
CONTINUOUS
 10
358.091173
 20
148.149139
30
-244.026169
  0
VERTEX
  8
1
  6
CONTINUOUS
 10
358.295806
 20
148.251309
30
-244.021445
  0
SEQEND
  8
0
  0
POLYLINE
  8
1
  6
CONTINUOUS
 66
     1
 70
     0
 10
0.000000
 20
0.000000
30
246.806244
  0
VERTEX
  8
1
  6
CONTINUOUS
 10
384.819717
 20
31.476940
30
246.806244
  0
VERTEX
  8
1
  6
CONTINUOUS
 10
384.815060
 20
31.028732
30
246.806244
  0
VERTEX
  8
1
  6
CONTINUOUS
 10
385.113148
 20
31.028987
30
246.806244
  0
VERTEX
  8
1
  6
CONTINUOUS
 10
385.108234
 20
31.476771
30
246.806244
  0
VERTEX
  8
1
  6
CONTINUOUS
 10
384.821362
 20
31.476938
30
246.806244
  0
SEQEND
  8
0
  0
POLYLINE
  8
1
  6
CONTINUOUS
 66
     1
 70
     0
 10
0.000000
 20
0.000000
30
246.806244
  0
VERTEX
  8
1
  6
CONTINUOUS
 10
384.819632
 20
31.468744
30
246.806244
  0
VERTEX
  8
1
  6
CONTINUOUS
 10
384.815060
 20
31.028732
30
246.806244
  0
VERTEX
  8
1
  6
CONTINUOUS
 10
385.113148
 20
31.028987
30
246.806244
  0
VERTEX
  8
1
  6
CONTINUOUS
 10
385.108234
 20
31.476771
30
246.806244
  0
VERTEX
  8
1
  6
CONTINUOUS
 10
384.819717
 20
31.476940
30
246.806244
  0
SEQEND
  8
0
  0
POLYLINE
  8
1
  6
CONTINUOUS
 66
     1
 70
     0
 210
-0.003289
 220
0.012328
 230
0.999919
 10
0.000000
 20
0.000000
30
245.902954
  0
VERTEX
  8
1
  6
CONTINUOUS
 10
385.194761
 20
28.441020
30
245.902954
  0
VERTEX
  8
1
  6
CONTINUOUS
 10
384.958116
 20
28.439350
30
245.903712
  0
VERTEX
  8
1
  6
CONTINUOUS
 10
384.966072
 20
27.998865
30
245.903863
  0
VERTEX
  8
1
  6
CONTINUOUS
 10
385.241725
 20
27.996989
30
245.902934
  0
VERTEX
  8
1
  6
CONTINUOUS
 10
385.231820
 20
28.441259
30
245.904635
  0
SEQEND
  8
0
  0
POLYLINE
  8
1
  6
CONTINUOUS
 66
     1
 70
     0
 210
-0.003154
 220
0.012606
 230
0.999916
 10
0.000000
 20
0.000000
30
245.962908
  0
VERTEX
  8
1
  6
CONTINUOUS
 10
385.198543
 20
28.372391
30
245.962908
  0
VERTEX
  8
1
  6
CONTINUOUS
 10
384.924844
 20
28.370460
30
245.963747
  0
VERTEX
  8
1
  6
CONTINUOUS
 10
384.932799
 20
27.929975
30
245.963777
  0
VERTEX
  8
1
  6
CONTINUOUS
 10
385.208452
 20
27.928099
30
245.962884
  0
VERTEX
  8
1
  6
CONTINUOUS
 10
385.198962
 20
28.353824
30
245.964632
  0
SEQEND
  8
0
  0
LINE
  8
1
  6
CONTINUOUS
 10
384.098203
 20
30.978214
 30
246.801058
 11
385.176771
 21
30.982844
 31
246.802374
  0
POLYLINE
  8
1
  6
CONTINUOUS
 66
     1
 70
     0
 210
-0.037173
 220
-0.009028
 230
-0.999268
 10
0.000000
 20
0.000000
30
-261.129931
  0
VERTEX
  8
1
  6
CONTINUOUS
 10
60.618918
 20
-371.149830
30
-261.129931
  0
VERTEX
  8
1
  6
CONTINUOUS
 10
61.021774
 20
-371.067311
30
-261.133341
  0
VERTEX
  8
1
  6
CONTINUOUS
 10
60.957130
 20
-370.809052
30
-261.129931
  0
VERTEX
  8
1
  6
CONTINUOUS
 10
60.562901
 20
-370.909423
30
-261.133341
  0
SEQEND
  8
0
  0
POLYLINE
  8
1
  6
CONTINUOUS
 66
     1
 70
     0
 210
0.002515
 220
0.027843
 230
0.999609
 10
0.000000
 20
0.000000
30
248.477978
  0
VERTEX
  8
1
  6
CONTINUOUS
 10
-380.133876
 20
-58.518997
30
248.477978
  0
VERTEX
  8
1
  6
CONTINUOUS
 10
-380.169321
 20
-58.104272
30
248.482033
  0
VERTEX
  8
1
  6
CONTINUOUS
 10
-380.472892
 20
-58.129038
30
248.477978
  0
VERTEX
  8
1
  6
CONTINUOUS
 10
-380.429445
 20
-58.546874
30
248.482033
  0
SEQEND
  8
0
  0
POLYLINE
  8
1
  6
CONTINUOUS
 66
     1
 70
     0
 210
-0.064715
 220
-0.013247
 230
-0.997816
 10
0.000000
 20
0.000000
30
-271.531393
  0
VERTEX
  8
1
  6
CONTINUOUS
 10
46.878628
 20
-366.368954
30
-271.531393
  0
VERTEX
  8
1
  6
CONTINUOUS
 10
47.273755
 20
-366.291691
30
-271.537086
  0
VERTEX
  8
1
  6
CONTINUOUS
 10
47.214588
 20
-366.003243
30
-271.531393
  0
VERTEX
  8
1
  6
CONTINUOUS
 10
46.819991
 20
-366.089242
30
-271.537086
  0
SEQEND
  8
0
  0
POLYLINE
  8
1
  6
CONTINUOUS
 66
     1
 70
     0
 210
-0.026925
 220
0.000532
 230
0.999637
 10
0.000000
 20
0.000000
30
236.398871
  0
VERTEX
  8
1
  6
CONTINUOUS
 10
-37.573603
 20
391.030516
30
236.398871
  0
VERTEX
  8
1
  6
CONTINUOUS
 10
-39.621242
 20
390.964366
30
236.398918
  0
VERTEX
  8
1
  6
CONTINUOUS
 10
-39.596213
 20
389.883183
30
236.398269
  0
VERTEX
  8
1
  6
CONTINUOUS
 10
-38.150036
 20
389.933389
30
236.399504
  0
VERTEX
  8
1
  6
CONTINUOUS
 10
-37.547025
 20
389.944018
30
236.398319
  0
SEQEND
  8
0
  0
POLYLINE
  8
1
  6
CONTINUOUS
 66
     1
 70
     0
 210
1.000000
 220
0.000000
 230
0.000000
 10
0.000000
 20
0.000000
30
385.319072
  0
VERTEX
  8
1
  6
CONTINUOUS
 10
29.972351
 20
246.846363
30
385.319072
  0
VERTEX
  8
1
  6
CONTINUOUS
 10
29.965912
 20
246.846363
30
383.953514
  0
SEQEND
  8
0
  0
POLYLINE
  8
1
  6
CONTINUOUS
 66
     1
 70
     0
 210
-0.007346
 220
0.025126
 230
0.999657
 10
0.000000
 20
0.000000
30
244.766935
  0
VERTEX
  8
1
  6
CONTINUOUS
 10
-376.903678
 20
85.527798
30
244.766935
  0
VERTEX
  8
1
  6
CONTINUOUS
 10
-378.217958
 20
85.902271
30
244.782877
  0
VERTEX
  8
1
  6
CONTINUOUS
 10
-378.847203
 20
83.684726
30
244.773196
  0
VERTEX
  8
1
  6
CONTINUOUS
 10
-377.535547
 20
83.307096
30
244.776612
  0
VERTEX
  8
1
  6
CONTINUOUS
 10
-376.904200
 20
85.528274
30
244.779449
  0
SEQEND
  8
0
  0
POLYLINE
  8
1
  6
CONTINUOUS
 66
     1
 70
     0
 210
0.049959
 220
-0.061795
 230
-0.996838
 10
0.000000
 20
0.000000
30
-228.964584
  0
VERTEX
  8
1
  6
CONTINUOUS
 10
317.924003
 20
238.336391
30
-228.964584
  0
VERTEX
  8
1
  6
CONTINUOUS
 10
317.898461
 20
238.368405
30
-228.962032
  0
VERTEX
  8
1
  6
CONTINUOUS
 10
317.722345
 20
238.227829
30
-228.964584
  0
VERTEX
  8
1
  6
CONTINUOUS
 10
317.749959
 20
238.192453
30
-228.962032
  0
SEQEND
  8
0
  0
LINE
  8
1
  6
CONTINUOUS
 10
387.842360
 20
29.999391
 30
247.013309
 11
386.463439
 21
29.981737
 31
246.963497
  0
POLYLINE
  8
1
  6
CONTINUOUS
 66
     1
 70
     0
 210
0.026056
 220
-0.020859
 230
-0.999443
 10
0.000000
 20
0.000000
30
-237.381538
  0
VERTEX
  8
1
  6
CONTINUOUS
 10
264.874777
 20
291.086756
30
-237.381538
  0
VERTEX
  8
1
  6
CONTINUOUS
 10
265.588769
 20
290.513852
30
-237.395265
  0
VERTEX
  8
1
  6
CONTINUOUS
 10
266.616985
 20
289.678298
30
-237.405471
  0
VERTEX
  8
1
  6
CONTINUOUS
 10
267.479019
 20
290.735025
30
-237.390036
  0
VERTEX
  8
1
  6
CONTINUOUS
 10
265.727967
 20
292.170036
30
-237.400816
  0
VERTEX
  8
1
  6
CONTINUOUS
 10
264.861109
 20
291.098167
30
-237.394587
  0
SEQEND
  8
0
  0
POLYLINE
  8
1
  6
CONTINUOUS
 66
     1
 70
     0
 210
0.026092
 220
-0.020715
 230
-0.999445
 10
0.000000
 20
0.000000
30
-237.363220
  0
VERTEX
  8
1
  6
CONTINUOUS
 10
263.709052
 20
292.156463
30
-237.363220
  0
VERTEX
  8
1
  6
CONTINUOUS
 10
264.439078
 20
291.575552
30
-237.377075
  0
VERTEX
  8
1
  6
CONTINUOUS
 10
265.470681
 20
290.744179
30
-237.387091
  0
VERTEX
  8
1
  6
CONTINUOUS
 10
266.328414
 20
291.804399
30
-237.371604
  0
VERTEX
  8
1
  6
CONTINUOUS
 10
264.571552
 20
293.232287
30
-237.382708
  0
VERTEX
  8
1
  6
CONTINUOUS
 10
263.750948
 20
292.209143
30
-237.376831
  0
SEQEND
  8
0
  0
POLYLINE
  8
1
  6
CONTINUOUS
 66
     1
 70
     0
 210
0.003185
 220
-0.001007
 230
0.999994
 10
0.000000
 20
0.000000
30
248.014255
  0
VERTEX
  8
1
  6
CONTINUOUS
 10
385.873623
 20
30.817416
30
248.014255
  0
VERTEX
  8
1
  6
CONTINUOUS
 10
386.153901
 20
30.819036
30
248.014255
  0
VERTEX
  8
1
  6
CONTINUOUS
 10
386.147668
 20
31.227133
30
248.014255
  0
SEQEND
  8
0
  0
LINE
  8
1
  6
CONTINUOUS
 10
386.987689
 20
30.580137
 30
246.814010
 11
386.988357
 21
30.980434
 31
246.814010
  0
POLYLINE
  8
1
  6
CONTINUOUS
 66
     1
 70
     0
 10
0.000000
 20
0.000000
30
246.814010
  0
VERTEX
  8
1
  6
CONTINUOUS
 10
386.987689
 20
30.580137
30
246.814010
  0
VERTEX
  8
1
  6
CONTINUOUS
 10
387.302171
 20
30.577335
30
246.814010
  0
VERTEX
  8
1
  6
CONTINUOUS
 10
387.302410
 20
30.982360
30
246.814010
  0
SEQEND
  8
0
  0
LINE
  8
1
  6
CONTINUOUS
 10
387.638057
 20
30.983430
 30
246.883073
 11
386.627639
 21
30.978949
 31
246.856860
  0
POLYLINE
  8
1
  6
CONTINUOUS
 66
     1
 70
     0
 210
0.000000
 220
0.000000
 230
-1.000000
 10
0.000000
 20
0.000000
30
-246.828244
  0
VERTEX
  8
1
  6
CONTINUOUS
 10
-387.638057
 20
30.983430
30
-246.828244
  0
VERTEX
  8
1
  6
CONTINUOUS
 10
-387.640387
 20
30.592667
30
-246.828244
  0
VERTEX
  8
1
  6
CONTINUOUS
 10
-387.344026
 20
30.595860
30
-246.828244
  0
VERTEX
  8
1
  6
CONTINUOUS
 10
-387.344667
 20
30.982393
30
-246.828244
  0
SEQEND
  8
0
  0
POLYLINE
  8
1
  6
CONTINUOUS
 66
     1
 70
     0
 210
-0.003880
 220
-0.005772
 230
-0.999976
 10
0.000000
 20
0.000000
30
-248.533916
  0
VERTEX
  8
1
  6
CONTINUOUS
 10
-386.659405
 20
30.106797
30
-248.533916
  0
VERTEX
  8
1
  6
CONTINUOUS
 10
-386.390659
 20
30.109986
30
-248.532029
  0
VERTEX
  8
1
  6
CONTINUOUS
 10
-386.392193
 20
30.508589
30
-248.532610
  0
VERTEX
  8
1
  6
CONTINUOUS
 10
-386.670443
 20
30.518776
30
-248.533316
  0
VERTEX
  8
1
  6
CONTINUOUS
 10
-386.670624
 20
30.106680
30
-248.531364
  0
SEQEND
  8
0
  0
POLYLINE
  8
1
  6
CONTINUOUS
 66
     1
 70
     0
 210
-0.003603
 220
-0.005902
 230
-0.999976
 10
0.000000
 20
0.000000
30
-248.430774
  0
VERTEX
  8
1
  6
CONTINUOUS
 10
-386.739400
 20
30.075046
30
-248.430774
  0
VERTEX
  8
1
  6
CONTINUOUS
 10
-386.459444
 20
30.078367
30
-248.428886
  0
VERTEX
  8
1
  6
CONTINUOUS
 10
-386.460978
 20
30.476970
30
-248.429519
  0
VERTEX
  8
1
  6
CONTINUOUS
 10
-386.739229
 20
30.487157
30
-248.430149
  0
VERTEX
  8
1
  6
CONTINUOUS
 10
-386.739399
 20
30.099088
30
-248.428260
  0
SEQEND
  8
0
  0
POLYLINE
  8
1
  6
CONTINUOUS
 66
     1
 70
     0
 210
0.000000
 220
0.000000
 230
-1.000000
 10
0.000000
 20
0.000000
30
-246.851108
  0
VERTEX
  8
1
  6
CONTINUOUS
 10
-387.293676
 20
31.538039
30
-246.851108
  0
VERTEX
  8
1
  6
CONTINUOUS
 10
-387.004645
 20
31.536482
30
-246.851108
  0
VERTEX
  8
1
  6
CONTINUOUS
 10
-387.006612
 20
31.946298
30
-246.851108
  0
VERTEX
  8
1
  6
CONTINUOUS
 10
-387.298228
 20
31.943970
30
-246.851108
  0
VERTEX
  8
1
  6
CONTINUOUS
 10
-387.297150
 20
31.538058
30
-246.851108
  0
SEQEND
  8
0
  0
POLYLINE
  8
1
  6
CONTINUOUS
 66
     1
 70
     0
 210
0.000000
 220
0.000000
 230
-1.000000
 10
0.000000
 20
0.000000
30
-246.851108
  0
VERTEX
  8
1
  6
CONTINUOUS
 10
-387.297150
 20
31.538058
30
-246.851108
  0
VERTEX
  8
1
  6
CONTINUOUS
 10
-387.004645
 20
31.536482
30
-246.851108
  0
VERTEX
  8
1
  6
CONTINUOUS
 10
-387.006612
 20
31.946298
30
-246.851108
  0
VERTEX
  8
1
  6
CONTINUOUS
 10
-387.298228
 20
31.943970
30
-246.851108
  0
VERTEX
  8
1
  6
CONTINUOUS
 10
-387.297176
 20
31.548014
30
-246.851108
  0
SEQEND
  8
0
  0
POLYLINE
  8
1
  6
CONTINUOUS
 66
     1
 70
     0
 210
0.086042
 220
0.014070
 230
-0.996192
 10
0.000000
 20
0.000000
30
-212.164507
  0
VERTEX
  8
1
  6
CONTINUOUS
 10
-31.443982
 20
407.395276
30
-212.164507
  0
VERTEX
  8
1
  6
CONTINUOUS
 10
-31.488610
 20
407.674573
30
-212.144856
  0
VERTEX
  8
1
  6
CONTINUOUS
 10
-31.907794
 20
407.626505
30
-212.149063
  0
VERTEX
  8
1
  6
CONTINUOUS
 10
-31.862870
 20
407.323220
30
-212.159151
  0
VERTEX
  8
1
  6
CONTINUOUS
 10
-31.444057
 20
407.392672
30
-212.134880
  0
SEQEND
  8
0
  0
POLYLINE
  8
1
  6
CONTINUOUS
 66
     1
 70
     0
 210
0.026506
 220
0.007806
 230
-0.999618
 10
0.000000
 20
0.000000
30
-236.246851
  0
VERTEX
  8
1
  6
CONTINUOUS
 10
-79.133661
 20
386.819748
30
-236.246851
  0
VERTEX
  8
1
  6
CONTINUOUS
 10
-79.211549
 20
387.082108
30
-236.239599
  0
VERTEX
  8
1
  6
CONTINUOUS
 10
-79.624979
 20
386.965090
30
-236.243266
  0
VERTEX
  8
1
  6
CONTINUOUS
 10
-79.550928
 20
386.688180
30
-236.243152
  0
VERTEX
  8
1
  6
CONTINUOUS
 10
-79.130920
 20
386.810307
30
-236.239776
  0
SEQEND
  8
0
  0
POLYLINE
  8
1
  6
CONTINUOUS
 66
     1
 70
     0
 210
0.026351
 220
0.008092
 230
-0.999620
 10
0.000000
 20
0.000000
30
-236.298682
  0
VERTEX
  8
1
  6
CONTINUOUS
 10
-83.507502
 20
385.857744
30
-236.298682
  0
VERTEX
  8
1
  6
CONTINUOUS
 10
-83.591258
 20
386.128396
30
-236.291219
  0
VERTEX
  8
1
  6
CONTINUOUS
 10
-84.003311
 20
386.006621
30
-236.295009
  0
VERTEX
  8
1
  6
CONTINUOUS
 10
-83.926074
 20
385.730583
30
-236.294852
  0
VERTEX
  8
1
  6
CONTINUOUS
 10
-83.512533
 20
385.856016
30
-236.291394
  0
SEQEND
  8
0
  0
POLYLINE
  8
1
  6
CONTINUOUS
 66
     1
 70
     0
 210
0.000165
 220
-0.007354
 230
-0.999973
 10
0.000000
 20
0.000000
30
-247.005272
  0
VERTEX
  8
1
  6
CONTINUOUS
 10
-386.981891
 20
29.713404
30
-247.005272
  0
VERTEX
  8
1
  6
CONTINUOUS
 10
-386.695041
 20
29.714055
30
-246.999202
  0
VERTEX
  8
1
  6
CONTINUOUS
 10
-386.695286
 20
30.131625
30
-247.002274
  0
VERTEX
  8
1
  6
CONTINUOUS
 10
-386.980431
 20
30.130596
30
-247.002219
  0
VERTEX
  8
1
  6
CONTINUOUS
 10
-386.981864
 20
29.720484
30
-246.999202
  0
SEQEND
  8
0
  0
POLYLINE
  8
1
  6
CONTINUOUS
 66
     1
 70
     0
 210
-0.000015
 220
-0.007257
 230
-0.999974
 10
0.000000
 20
0.000000
30
-247.072011
  0
VERTEX
  8
1
  6
CONTINUOUS
 10
-386.933561
 20
29.736990
30
-247.072011
  0
VERTEX
  8
1
  6
CONTINUOUS
 10
-386.650572
 20
29.737632
30
-247.065971
  0
VERTEX
  8
1
  6
CONTINUOUS
 10
-386.650817
 20
30.155203
30
-247.069002
  0
VERTEX
  8
1
  6
CONTINUOUS
 10
-386.935962
 20
30.154174
30
-247.068999
  0
VERTEX
  8
1
  6
CONTINUOUS
 10
-386.937421
 20
29.737027
30
-247.065971
  0
SEQEND
  8
0
  0
POLYLINE
  8
1
  6
CONTINUOUS
 66
     1
 70
     0
 210
0.000000
 220
0.000000
 230
-1.000000
 10
0.000000
 20
0.000000
30
-246.837735
  0
VERTEX
  8
1
  6
CONTINUOUS
 10
-386.670286
 20
31.478011
30
-246.837735
  0
VERTEX
  8
1
  6
CONTINUOUS
 10
-386.945076
 20
31.471809
30
-246.837735
  0
VERTEX
  8
1
  6
CONTINUOUS
 10
-386.946126
 20
31.054658
30
-246.837735
  0
VERTEX
  8
1
  6
CONTINUOUS
 10
-386.665719
 20
31.045762
30
-246.837735
  0
VERTEX
  8
1
  6
CONTINUOUS
 10
-386.668844
 20
31.477999
30
-246.837735
  0
SEQEND
  8
0
  0
LINE
  8
1
  6
CONTINUOUS
 10
386.658322
 20
30.979086
 30
246.814010
 11
386.661681
 21
30.567730
 31
246.814010
  0
LINE
  8
1
  6
CONTINUOUS
 10
388.251825
 20
24.992044
 30
247.102174
 11
388.259899
 21
28.429358
 31
247.074916
  0
POLYLINE
  8
1
  6
CONTINUOUS
 66
     1
 70
     0
 210
0.019365
 220
0.080760
 230
-0.996545
 10
0.000000
 20
0.000000
30
-236.491346
  0
VERTEX
  8
1
  6
CONTINUOUS
 10
-370.515145
 20
139.052395
30
-236.491346
  0
VERTEX
  8
1
  6
CONTINUOUS
 10
-370.525599
 20
139.008834
30
-236.494976
  0
VERTEX
  8
1
  6
CONTINUOUS
 10
-370.318760
 20
138.958890
30
-236.491346
  0
VERTEX
  8
1
  6
CONTINUOUS
 10
-370.309220
 20
139.003988
30
-236.494976
  0
SEQEND
  8
0
  0
POLYLINE
  8
1
  6
CONTINUOUS
 66
     1
 70
     0
 210
0.000924
 220
-0.000406
 230
-0.999999
 10
0.000000
 20
0.000000
30
-246.145043
  0
VERTEX
  8
1
  6
CONTINUOUS
 10
-385.027394
 20
26.241382
30
-246.145043
  0
VERTEX
  8
1
  6
CONTINUOUS
 10
-385.217204
 20
26.240408
30
-246.144867
  0
VERTEX
  8
1
  6
CONTINUOUS
 10
-385.217607
 20
26.191660
30
-246.144847
  0
VERTEX
  8
1
  6
CONTINUOUS
 10
-385.005797
 20
26.192217
30
-246.145043
  0
VERTEX
  8
1
  6
CONTINUOUS
 10
-385.006603
 20
26.241489
30
-246.144673
  0
SEQEND
  8
0
  0
POLYLINE
  8
1
  6
CONTINUOUS
 66
     1
 70
     0
 210
0.000583
 220
-0.000010
 230
-1.000000
 10
0.000000
 20
0.000000
30
-246.265850
  0
VERTEX
  8
1
  6
CONTINUOUS
 10
-384.922690
 20
26.339048
30
-246.265850
  0
VERTEX
  8
1
  6
CONTINUOUS
 10
-385.133291
 20
26.337967
30
-246.265728
  0
VERTEX
  8
1
  6
CONTINUOUS
 10
-385.133694
 20
26.289220
30
-246.265727
  0
VERTEX
  8
1
  6
CONTINUOUS
 10
-384.921884
 20
26.289777
30
-246.265850
  0
VERTEX
  8
1
  6
CONTINUOUS
 10
-384.922392
 20
26.320792
30
-246.265605
  0
SEQEND
  8
0
  0
POLYLINE
  8
1
  6
CONTINUOUS
 66
     1
 70
     0
 210
0.009566
 220
-0.009939
 230
-0.999905
 10
0.000000
 20
0.000000
30
-243.109529
  0
VERTEX
  8
1
  6
CONTINUOUS
 10
-386.757572
 20
22.547140
30
-243.109529
  0
VERTEX
  8
1
  6
CONTINUOUS
 10
-386.764303
 20
25.220563
30
-243.085653
  0
VERTEX
  8
1
  6
CONTINUOUS
 10
-387.716399
 20
25.236427
30
-243.082742
  0
VERTEX
  8
1
  6
CONTINUOUS
 10
-387.676802
 20
22.596547
30
-243.137990
  0
VERTEX
  8
1
  6
CONTINUOUS
 10
-387.590100
 20
22.602629
30
-243.138880
  0
VERTEX
  8
1
  6
CONTINUOUS
 10
-387.643808
 20
25.159326
30
-243.074904
  0
VERTEX
  8
1
  6
CONTINUOUS
 10
-386.830193
 20
25.132593
30
-243.078108
  0
VERTEX
  8
1
  6
CONTINUOUS
 10
-386.828795
 20
22.549007
30
-243.109823
  0
SEQEND
  8
0
  0
POLYLINE
  8
1
  6
CONTINUOUS
 66
     1
 70
     0
 210
1.000000
 220
0.000000
 230
0.000000
 10
0.000000
 20
0.000000
30
385.248585
  0
VERTEX
  8
1
  6
CONTINUOUS
 10
25.118910
 20
246.569844
30
385.248585
  0
VERTEX
  8
1
  6
CONTINUOUS
 10
25.118512
 20
246.569844
30
384.487046
  0
SEQEND
  8
0
  0
LINE
  8
1
  6
CONTINUOUS
 10
386.067660
 20
25.115791
 30
246.569844
 11
385.338249
 21
25.117503
 31
246.569844
  0
LINE
  8
1
  6
CONTINUOUS
 10
384.416733
 20
25.118990
 30
246.566880
 11
383.657199
 21
25.118510
 31
246.564569
  0
LINE
  8
1
  6
CONTINUOUS
 10
384.132488
 20
28.469075
 30
246.938248
 11
384.137815
 21
28.784207
 31
246.938248
  0
LINE
  8
1
  6
CONTINUOUS
 10
383.997559
 20
28.784642
 30
246.932199
 11
383.997374
 21
28.469059
 31
246.932668
  0
POLYLINE
  8
1
  6
CONTINUOUS
 66
     1
 70
     0
 210
-0.011684
 220
-0.157478
 230
0.987453
 10
0.000000
 20
0.000000
30
234.879454
  0
VERTEX
  8
1
  6
CONTINUOUS
 10
380.207412
 20
94.974788
30
234.879454
  0
VERTEX
  8
1
  6
CONTINUOUS
 10
378.901294
 20
94.886846
30
234.897032
  0
VERTEX
  8
1
  6
CONTINUOUS
 10
376.939319
 20
94.739976
30
234.879454
  0
VERTEX
  8
1
  6
CONTINUOUS
 10
374.893466
 20
94.586344
30
234.897032
  0
SEQEND
  8
0
  0
POLYLINE
  8
1
  6
CONTINUOUS
 66
     1
 70
     0
 210
-0.008558
 220
-0.135214
 230
0.990780
 10
0.000000
 20
0.000000
30
237.606691
  0
VERTEX
  8
1
  6
CONTINUOUS
 10
380.799784
 20
85.546051
30
237.606691
  0
VERTEX
  8
1
  6
CONTINUOUS
 10
380.813810
 20
85.514491
30
237.602299
  0
VERTEX
  8
1
  6
CONTINUOUS
 10
381.126516
 20
85.539682
30
237.606691
  0
VERTEX
  8
1
  6
CONTINUOUS
 10
381.138402
 20
85.571807
30
237.602299
  0
SEQEND
  8
0
  0
POLYLINE
  8
1
  6
CONTINUOUS
 66
     1
 70
     0
 210
1.000000
 220
0.000000
 230
0.000000
 10
0.000000
 20
0.000000
30
383.657119
  0
VERTEX
  8
1
  6
CONTINUOUS
 10
24.979800
 20
246.931547
30
383.657119
  0
VERTEX
  8
1
  6
CONTINUOUS
 10
28.378315
 20
246.878921
30
383.659115
  0
SEQEND
  8
0
  0
POLYLINE
  8
1
  6
CONTINUOUS
 66
     1
 70
     0
 210
1.000000
 220
0.000000
 230
0.000000
 10
0.000000
 20
0.000000
30
383.393107
  0
VERTEX
  8
1
  6
CONTINUOUS
 10
24.977641
 20
246.924875
30
383.393107
  0
VERTEX
  8
1
  6
CONTINUOUS
 10
28.375215
 20
246.871076
30
383.403711
  0
SEQEND
  8
0
  0
POLYLINE
  8
1
  6
CONTINUOUS
 66
     1
 70
     0
 210
-0.011919
 220
0.865342
 230
0.501040
 10
0.000000
 20
0.000000
30
143.755756
  0
VERTEX
  8
1
  6
CONTINUOUS
 10
-388.614608
 20
202.239847
30
143.755756
  0
VERTEX
  8
1
  6
CONTINUOUS
 10
-386.720055
 20
202.193018
30
143.753567
  0
VERTEX
  8
1
  6
CONTINUOUS
 10
-385.102065
 20
202.153868
30
143.755756
  0
VERTEX
  8
1
  6
CONTINUOUS
 10
-384.051483
 20
202.161516
30
143.753567
  0
SEQEND
  8
0
  0
POLYLINE
  8
1
  6
CONTINUOUS
 66
     1
 70
     0
 210
-0.000060
 220
0.011492
 230
0.999934
 10
0.000000
 20
0.000000
30
246.991318
  0
VERTEX
  8
1
  6
CONTINUOUS
 10
386.082420
 20
22.132665
30
246.991318
  0
VERTEX
  8
1
  6
CONTINUOUS
 10
386.081424
 20
25.586144
30
246.991318
  0
VERTEX
  8
1
  6
CONTINUOUS
 10
383.715009
 20
25.573861
30
246.991318
  0
SEQEND
  8
0
  0
POLYLINE
  8
1
  6
CONTINUOUS
 66
     1
 70
     0
 210
-0.039299
 220
-0.044611
 230
-0.998231
 10
0.000000
 20
0.000000
30
-262.469578
  0
VERTEX
  8
1
  6
CONTINUOUS
 10
267.083930
 20
-253.403917
30
-262.469578
  0
VERTEX
  8
1
  6
CONTINUOUS
 10
266.702300
 20
-253.855942
30
-262.499135
  0
VERTEX
  8
1
  6
CONTINUOUS
 10
266.437935
 20
-253.628131
30
-262.469578
  0
VERTEX
  8
1
  6
CONTINUOUS
 10
265.634278
 20
-254.545271
30
-262.499135
  0
SEQEND
  8
0
  0
POLYLINE
  8
1
  6
CONTINUOUS
 66
     1
 70
     0
 210
0.010435
 220
0.014642
 230
0.999838
 10
0.000000
 20
0.000000
30
251.213461
  0
VERTEX
  8
1
  6
CONTINUOUS
 10
374.725999
 20
21.276844
30
251.213461
  0
VERTEX
  8
1
  6
CONTINUOUS
 10
374.730456
 20
21.933077
30
251.212554
  0
VERTEX
  8
1
  6
CONTINUOUS
 10
373.959079
 20
21.926182
30
251.213461
  0
VERTEX
  8
1
  6
CONTINUOUS
 10
373.945219
 20
21.255326
30
251.212554
  0
SEQEND
  8
0
  0
POLYLINE
  8
1
  6
CONTINUOUS
 66
     1
 70
     0
 210
0.894982
 220
-0.008675
 230
-0.446018
 10
0.000000
 20
0.000000
30
226.673042
  0
VERTEX
  8
1
  6
CONTINUOUS
 10
29.251077
 20
388.861748
30
226.673042
  0
VERTEX
  8
1
  6
CONTINUOUS
 10
30.955706
 20
388.833795
30
226.683229
  0
VERTEX
  8
1
  6
CONTINUOUS
 10
33.249702
 20
388.780853
30
226.683381
  0
VERTEX
  8
1
  6
CONTINUOUS
 10
35.210387
 20
388.774223
30
226.680715
  0
VERTEX
  8
1
  6
CONTINUOUS
 10
36.925224
 20
388.752370
30
226.691991
  0
SEQEND
  8
0
  0
POLYLINE
  8
1
  6
CONTINUOUS
 66
     1
 70
     0
 210
-0.923563
 220
0.013296
 230
0.383215
 10
0.000000
 20
0.000000
30
-253.494429
  0
VERTEX
  8
1
  6
CONTINUOUS
 10
-32.235961
 20
372.483175
30
-253.494429
  0
VERTEX
  8
1
  6
CONTINUOUS
 10
-31.704874
 20
372.483175
30
-253.494429
  0
VERTEX
  8
1
  6
CONTINUOUS
 10
-31.037195
 20
372.493295
30
-253.494429
  0
SEQEND
  8
0
  0
POLYLINE
  8
1
  6
CONTINUOUS
 66
     1
 70
     0
 210
-0.312320
 220
-0.087336
 230
0.945954
 10
0.000000
 20
0.000000
30
105.953098
  0
VERTEX
  8
1
  6
CONTINUOUS
 10
68.835249
 20
443.054234
30
105.953098
  0
VERTEX
  8
1
  6
CONTINUOUS
 10
68.527777
 20
443.128359
30
105.927089
  0
VERTEX
  8
1
  6
CONTINUOUS
 10
68.262226
 20
443.177429
30
105.911179
  0
VERTEX
  8
1
  6
CONTINUOUS
 10
68.027912
 20
443.213419
30
105.897928
  0
VERTEX
  8
1
  6
CONTINUOUS
 10
67.911631
 20
443.207892
30
105.869725
  0
VERTEX
  8
1
  6
CONTINUOUS
 10
67.912968
 20
443.235223
30
105.860812
  0
VERTEX
  8
1
  6
CONTINUOUS
 10
67.879618
 20
443.233326
30
105.862374
  0
VERTEX
  8
1
  6
CONTINUOUS
 10
67.805744
 20
443.077915
30
106.000020
  0
VERTEX
  8
1
  6
CONTINUOUS
 10
67.768606
 20
442.860432
30
105.991125
  0
VERTEX
  8
1
  6
CONTINUOUS
 10
67.768921
 20
442.759186
30
105.889480
  0
VERTEX
  8
1
  6
CONTINUOUS
 10
67.800723
 20
442.745726
30
105.874941
  0
VERTEX
  8
1
  6
CONTINUOUS
 10
67.804133
 20
442.761215
30
105.867807
  0
VERTEX
  8
1
  6
CONTINUOUS
 10
68.037594
 20
442.696773
30
105.891268
  0
VERTEX
  8
1
  6
CONTINUOUS
 10
68.275607
 20
442.634230
30
105.914534
  0
VERTEX
  8
1
  6
CONTINUOUS
 10
68.546302
 20
442.570461
30
105.954180
  0
VERTEX
  8
1
  6
CONTINUOUS
 10
68.748757
 20
442.549403
30
105.961400
  0
SEQEND
  8
0
  0
POLYLINE
  8
1
  6
CONTINUOUS
 66
     1
 70
     0
 210
-0.003732
 220
0.001780
 230
0.999991
 10
0.000000
 20
0.000000
30
242.899387
  0
VERTEX
  8
1
  6
CONTINUOUS
 10
390.133223
 20
36.549021
30
242.899387
  0
VERTEX
  8
1
  6
CONTINUOUS
 10
390.107979
 20
36.744625
30
242.898470
  0
VERTEX
  8
1
  6
CONTINUOUS
 10
389.381932
 20
36.706656
30
242.899387
  0
VERTEX
  8
1
  6
CONTINUOUS
 10
389.390855
 20
36.492446
30
242.898470
  0
SEQEND
  8
0
  0
POLYLINE
  8
1
  6
CONTINUOUS
 66
     1
 70
     0
 210
-0.995952
 220
0.008666
 230
0.089465
 10
0.000000
 20
0.000000
30
-365.529070
  0
VERTEX
  8
1
  6
CONTINUOUS
 10
-28.383115
 20
280.916973
30
-365.529070
  0
VERTEX
  8
1
  6
CONTINUOUS
 10
-29.839545
 20
280.893559
30
-365.533602
  0
VERTEX
  8
1
  6
CONTINUOUS
 10
-30.873189
 20
280.885064
30
-365.535473
  0
VERTEX
  8
1
  6
CONTINUOUS
 10
-32.038772
 20
280.882653
30
-365.527926
  0
VERTEX
  8
1
  6
CONTINUOUS
 10
-33.091283
 20
280.866427
30
-365.516045
  0
VERTEX
  8
1
  6
CONTINUOUS
 10
-34.143221
 20
280.839634
30
-365.487791
  0
VERTEX
  8
1
  6
CONTINUOUS
 10
-35.294807
 20
280.836400
30
-365.456610
  0
VERTEX
  8
1
  6
CONTINUOUS
 10
-36.019896
 20
280.835334
30
-365.444735
  0
VERTEX
  8
1
  6
CONTINUOUS
 10
-36.613212
 20
280.264976
30
-365.459947
  0
VERTEX
  8
1
  6
CONTINUOUS
 10
-37.448209
 20
279.412965
30
-365.512351
  0
VERTEX
  8
1
  6
CONTINUOUS
 10
-38.687097
 20
278.095873
30
-365.618834
  0
VERTEX
  8
1
  6
CONTINUOUS
 10
-38.786231
 20
278.124990
30
-365.605448
  0
VERTEX
  8
1
  6
CONTINUOUS
 10
-38.784405
 20
278.123872
30
-365.593004
  0
VERTEX
  8
1
  6
CONTINUOUS
 10
-40.145185
 20
278.110209
30
-365.503910
  0
SEQEND
  8
0
  0
POLYLINE
  8
1
  6
CONTINUOUS
 66
     1
 70
     0
 210
1.000000
 220
0.000000
 230
0.000000
 10
0.000000
 20
0.000000
30
388.592220
  0
VERTEX
  8
1
  6
CONTINUOUS
 10
35.333479
 20
244.325339
30
388.592220
  0
VERTEX
  8
1
  6
CONTINUOUS
 10
36.694230
 20
244.296397
30
388.489169
  0
SEQEND
  8
0
  0
POLYLINE
  8
1
  6
CONTINUOUS
 66
     1
 70
     0
 210
-0.012276
 220
-0.045132
 230
-0.998906
 10
0.000000
 20
0.000000
30
-250.419215
  0
VERTEX
  8
1
  6
CONTINUOUS
 10
365.752468
 20
-124.440540
30
-250.419215
  0
VERTEX
  8
1
  6
CONTINUOUS
 10
366.119396
 20
-124.564121
30
-250.425001
  0
VERTEX
  8
1
  6
CONTINUOUS
 10
366.031558
 20
-124.545240
30
-250.423685
  0
VERTEX
  8
1
  6
CONTINUOUS
 10
365.952122
 20
-124.530523
30
-250.410904
  0
VERTEX
  8
1
  6
CONTINUOUS
 10
365.893011
 20
-124.550747
30
-250.410124
  0
VERTEX
  8
1
  6
CONTINUOUS
 10
365.936977
 20
-124.581438
30
-250.411128
  0
VERTEX
  8
1
  6
CONTINUOUS
 10
365.996815
 20
-124.598105
30
-250.411908
  0
VERTEX
  8
1
  6
CONTINUOUS
 10
366.083240
 20
-124.635476
30
-250.411500
  0
VERTEX
  8
1
  6
CONTINUOUS
 10
366.145060
 20
-124.662950
30
-250.412786
  0
VERTEX
  8
1
  6
CONTINUOUS
 10
366.231738
 20
-124.692699
30
-250.414179
  0
VERTEX
  8
1
  6
CONTINUOUS
 10
366.301508
 20
-124.694198
30
-250.414249
  0
VERTEX
  8
1
  6
CONTINUOUS
 10
366.376256
 20
-124.682313
30
-250.413693
  0
VERTEX
  8
1
  6
CONTINUOUS
 10
366.444494
 20
-124.658326
30
-250.412569
  0
SEQEND
  8
0
  0
POLYLINE
  8
1
  6
CONTINUOUS
 66
     1
 70
     0
 210
-0.978288
 220
-0.158911
 230
-0.133042
 10
0.000000
 20
0.000000
30
-418.902218
  0
VERTEX
  8
1
  6
CONTINUOUS
 10
30.329711
 20
193.319815
30
-418.902218
  0
VERTEX
  8
1
  6
CONTINUOUS
 10
30.023607
 20
193.073446
30
-418.892599
  0
VERTEX
  8
1
  6
CONTINUOUS
 10
29.516921
 20
192.435046
30
-418.898193
  0
VERTEX
  8
1
  6
CONTINUOUS
 10
29.002184
 20
191.980496
30
-418.938169
  0
VERTEX
  8
1
  6
CONTINUOUS
 10
28.257790
 20
191.118716
30
-418.908781
  0
VERTEX
  8
1
  6
CONTINUOUS
 10
27.528673
 20
190.262378
30
-418.922975
  0
SEQEND
  8
0
  0
POLYLINE
  8
1
  6
CONTINUOUS
 66
     1
 70
     0
 210
-0.979452
 220
-0.169154
 230
-0.109818
 10
0.000000
 20
0.000000
30
-402.355015
  0
VERTEX
  8
1
  6
CONTINUOUS
 10
29.398375
 20
201.021047
30
-402.355015
  0
VERTEX
  8
1
  6
CONTINUOUS
 10
29.616207
 20
201.188605
30
-402.311664
  0
VERTEX
  8
1
  6
CONTINUOUS
 10
29.652002
 20
201.310547
30
-402.355015
  0
VERTEX
  8
1
  6
CONTINUOUS
 10
30.048622
 20
201.698079
30
-402.311664
  0
SEQEND
  8
0
  0
LINE
  8
1
  6
CONTINUOUS
 10
377.354932
 20
35.606175
 30
243.919897
 11
377.367915
 21
36.711446
 31
243.875402
  0
POLYLINE
  8
1
  6
CONTINUOUS
 66
     1
 70
     0
 210
0.015625
 220
-0.138482
 230
-0.990242
 10
0.000000
 20
0.000000
30
-240.276962
  0
VERTEX
  8
1
  6
CONTINUOUS
 10
390.125162
 20
41.764803
30
-240.276962
  0
VERTEX
  8
1
  6
CONTINUOUS
 10
389.966762
 20
41.909890
30
-240.258540
  0
VERTEX
  8
1
  6
CONTINUOUS
 10
389.347043
 20
41.865697
30
-240.290027
  0
VERTEX
  8
1
  6
CONTINUOUS
 10
389.284947
 20
41.897328
30
-240.294289
  0
VERTEX
  8
1
  6
CONTINUOUS
 10
388.793997
 20
41.876142
30
-240.340834
  0
VERTEX
  8
1
  6
CONTINUOUS
 10
388.732873
 20
41.897421
30
-240.333048
  0
VERTEX
  8
1
  6
CONTINUOUS
 10
388.243925
 20
41.849854
30
-240.346276
  0
VERTEX
  8
1
  6
CONTINUOUS
 10
388.204910
 20
41.848499
30
-240.340367
  0
VERTEX
  8
1
  6
CONTINUOUS
 10
388.196642
 20
41.859918
30
-240.337889
  0
VERTEX
  8
1
  6
CONTINUOUS
 10
387.709801
 20
41.827464
30
-240.344636
  0
VERTEX
  8
1
  6
CONTINUOUS
 10
387.675479
 20
41.815940
30
-240.343643
  0
VERTEX
  8
1
  6
CONTINUOUS
 10
387.666394
 20
41.830706
30
-240.340694
  0
VERTEX
  8
1
  6
CONTINUOUS
 10
387.136469
 20
41.761129
30
-240.324347
  0
VERTEX
  8
1
  6
CONTINUOUS
 10
386.661418
 20
41.693367
30
-240.304260
  0
VERTEX
  8
1
  6
CONTINUOUS
 10
386.155909
 20
41.638361
30
-240.315487
  0
VERTEX
  8
1
  6
CONTINUOUS
 10
385.672626
 20
41.568888
30
-240.311759
  0
VERTEX
  8
1
  6
CONTINUOUS
 10
385.187376
 20
41.502508
30
-240.287993
  0
VERTEX
  8
1
  6
CONTINUOUS
 10
384.729061
 20
41.431112
30
-240.284536
  0
VERTEX
  8
1
  6
CONTINUOUS
 10
384.255587
 20
41.405775
30
-240.281132
  0
VERTEX
  8
1
  6
CONTINUOUS
 10
383.795661
 20
41.374236
30
-240.294282
  0
VERTEX
  8
1
  6
CONTINUOUS
 10
383.757286
 20
41.452190
30
-240.315549
  0
VERTEX
  8
1
  6
CONTINUOUS
 10
383.343928
 20
41.425869
30
-240.290501
  0
VERTEX
  8
1
  6
CONTINUOUS
 10
383.386834
 20
41.346696
30
-240.272456
  0
VERTEX
  8
1
  6
CONTINUOUS
 10
382.885787
 20
41.297789
30
-240.279775
  0
VERTEX
  8
1
  6
CONTINUOUS
 10
382.574016
 20
41.286125
30
-240.276189
  0
VERTEX
  8
1
  6
CONTINUOUS
 10
382.340116
 20
41.218689
30
-240.270867
  0
VERTEX
  8
1
  6
CONTINUOUS
 10
381.808168
 20
41.120508
30
-240.280329
  0
VERTEX
  8
1
  6
CONTINUOUS
 10
381.279711
 20
41.035533
30
-240.274861
  0
VERTEX
  8
1
  6
CONTINUOUS
 10
380.790829
 20
40.978963
30
-240.283259
  0
VERTEX
  8
1
  6
CONTINUOUS
 10
380.346478
 20
40.885341
30
-240.291207
  0
VERTEX
  8
1
  6
CONTINUOUS
 10
379.856710
 20
40.736277
30
-240.300423
  0
VERTEX
  8
1
  6
CONTINUOUS
 10
379.786702
 20
40.598475
30
-240.319816
  0
SEQEND
  8
0
  0
POLYLINE
  8
1
  6
CONTINUOUS
 66
     1
 70
     0
 210
0.000000
 220
0.000000
 230
-1.000000
 10
0.000000
 20
0.000000
30
-243.843481
  0
VERTEX
  8
1
  6
CONTINUOUS
 10
-377.383578
 20
36.931981
30
-243.843481
  0
VERTEX
  8
1
  6
CONTINUOUS
 10
-377.386729
 20
37.162235
30
-243.843481
  0
VERTEX
  8
1
  6
CONTINUOUS
 10
-378.189111
 20
37.165646
30
-243.843481
  0
VERTEX
  8
1
  6
CONTINUOUS
 10
-378.184217
 20
36.933029
30
-243.843481
  0
SEQEND
  8
0
  0
POLYLINE
  8
1
  6
CONTINUOUS
 66
     1
 70
     0
 210
-0.036361
 220
0.010227
 230
0.999286
 10
0.000000
 20
0.000000
30
230.399638
  0
VERTEX
  8
1
  6
CONTINUOUS
 10
-137.706525
 20
362.195453
30
230.399638
  0
VERTEX
  8
1
  6
CONTINUOUS
 10
-137.503437
 20
362.249546
30
230.404932
  0
VERTEX
  8
1
  6
CONTINUOUS
 10
-137.766975
 20
363.123702
30
230.401246
  0
VERTEX
  8
1
  6
CONTINUOUS
 10
-137.960328
 20
363.073512
30
230.403143
  0
VERTEX
  8
1
  6
CONTINUOUS
 10
-137.711940
 20
362.194144
30
230.403033
  0
SEQEND
  8
0
  0
POLYLINE
  8
1
  6
CONTINUOUS
 66
     1
 70
     0
 210
-0.036413
 220
0.010256
 230
0.999284
 10
0.000000
 20
0.000000
30
230.380232
  0
VERTEX
  8
1
  6
CONTINUOUS
 10
-137.840851
 20
362.157225
30
230.380232
  0
VERTEX
  8
1
  6
CONTINUOUS
 10
-137.632369
 20
362.212837
30
230.385661
  0
VERTEX
  8
1
  6
CONTINUOUS
 10
-137.896226
 20
363.086897
30
230.381928
  0
VERTEX
  8
1
  6
CONTINUOUS
 10
-138.089560
 20
363.036636
30
230.383830
  0
VERTEX
  8
1
  6
CONTINUOUS
 10
-137.841652
 20
362.160190
30
230.383768
  0
SEQEND
  8
0
  0
POINT
  8
1
  62
4
  6
CONTINUOUS
 10
389.237032
 20
25.590231
 30
247.075430
  0
POINT
  8
1
  62
4
  6
CONTINUOUS
 10
389.215131
 20
28.697091
 30
247.056880
  0
POINT
  8
1
  62
4
  6
CONTINUOUS
 10
389.126987
 20
32.133138
 30
247.057743
  0
POINT
  8
1
  62
4
  6
CONTINUOUS
 10
383.513756
 20
32.088549
 30
246.920130
  0
POINT
  8
1
  62
4
  6
CONTINUOUS
 10
383.142595
 20
28.860270
 30
246.946876
  0
POINT
  8
1
  62
4
  6
CONTINUOUS
 10
383.537456
 20
25.429218
 30
246.917974
  0
POINT
  8
1
  62
4
  6
CONTINUOUS
 10
377.505418
 20
25.499624
 30
246.911071
  0
POINT
  8
1
  62
4
  6
CONTINUOUS
 10
377.545598
 20
28.544760
 30
246.835147
  0
POINT
  8
1
  62
4
  6
CONTINUOUS
 10
377.560194
 20
32.099378
 30
246.804086
  0
LINE
  8
1
  6
CONTINUOUS
 10
378.020971
 20
37.337006
 30
243.338326
 11
378.020966
 21
37.332349
 31
245.423409
  0
POLYLINE
  8
1
  6
CONTINUOUS
 66
     1
 70
     0
 210
0.270221
 220
-0.064941
 230
0.960606
 10
0.000000
 20
0.000000
30
333.476792
  0
VERTEX
  8
1
  6
CONTINUOUS
 10
124.636448
 20
-277.067560
30
333.476792
  0
VERTEX
  8
1
  6
CONTINUOUS
 10
124.784483
 20
-277.029731
30
333.459111
  0
VERTEX
  8
1
  6
CONTINUOUS
 10
125.008734
 20
-276.977816
30
333.435560
  0
VERTEX
  8
1
  6
CONTINUOUS
 10
125.259762
 20
-276.929549
30
333.401836
  0
VERTEX
  8
1
  6
CONTINUOUS
 10
125.267682
 20
-276.933440
30
333.400716
  0
VERTEX
  8
1
  6
CONTINUOUS
 10
125.284767
 20
-276.922768
30
333.387749
  0
VERTEX
  8
1
  6
CONTINUOUS
 10
125.310100
 20
-276.931730
30
333.390790
  0
VERTEX
  8
1
  6
CONTINUOUS
 10
125.357851
 20
-276.934608
30
333.405096
  0
VERTEX
  8
1
  6
CONTINUOUS
 10
125.351778
 20
-276.709409
30
333.526311
  0
VERTEX
  8
1
  6
CONTINUOUS
 10
125.242490
 20
-276.522036
30
333.379142
  0
VERTEX
  8
1
  6
CONTINUOUS
 10
125.225067
 20
-276.545929
30
333.394587
  0
VERTEX
  8
1
  6
CONTINUOUS
 10
125.220937
 20
-276.550595
30
333.396385
  0
VERTEX
  8
1
  6
CONTINUOUS
 10
125.194725
 20
-276.562715
30
333.413813
  0
VERTEX
  8
1
  6
CONTINUOUS
 10
124.586964
 20
-276.672216
30
333.459342
  0
SEQEND
  8
0
  0
POLYLINE
  8
1
  6
CONTINUOUS
 66
     1
 70
     0
 210
0.770803
 220
-0.460646
 230
-0.440078
 10
0.000000
 20
0.000000
30
167.130128
  0
VERTEX
  8
1
  6
CONTINUOUS
 10
223.325523
 20
354.500285
30
167.130128
  0
VERTEX
  8
1
  6
CONTINUOUS
 10
222.617436
 20
355.436601
30
167.130128
  0
VERTEX
  8
1
  6
CONTINUOUS
 10
222.272302
 20
355.743807
30
167.130128
  0
SEQEND
  8
0
  0
POLYLINE
  8
1
  6
CONTINUOUS
 66
     1
 70
     0
 210
0.030084
 220
0.058496
 230
0.997834
 10
0.000000
 20
0.000000
30
259.639313
  0
VERTEX
  8
1
  6
CONTINUOUS
 10
-320.352797
 20
-185.491689
30
259.639313
  0
VERTEX
  8
1
  6
CONTINUOUS
 10
-320.248450
 20
-185.689822
30
259.652374
  0
VERTEX
  8
1
  6
CONTINUOUS
 10
-319.536731
 20
-185.330128
30
259.648118
  0
VERTEX
  8
1
  6
CONTINUOUS
 10
-319.634012
 20
-185.129234
30
259.643521
  0
VERTEX
  8
1
  6
CONTINUOUS
 10
-320.348707
 20
-185.488468
30
259.656914
  0
SEQEND
  8
0
  0
POLYLINE
  8
1
  6
CONTINUOUS
 66
     1
 70
     0
 210
0.029790
 220
0.058717
 230
0.997830
 10
0.000000
 20
0.000000
30
259.535131
  0
VERTEX
  8
1
  6
CONTINUOUS
 10
-321.458533
 20
-183.717009
30
259.535131
  0
VERTEX
  8
1
  6
CONTINUOUS
 10
-321.358041
 20
-183.910402
30
259.547892
  0
VERTEX
  8
1
  6
CONTINUOUS
 10
-320.644355
 20
-183.554624
30
259.543871
  0
VERTEX
  8
1
  6
CONTINUOUS
 10
-320.740529
 20
-183.353199
30
259.539227
  0
VERTEX
  8
1
  6
CONTINUOUS
 10
-321.461293
 20
-183.710533
30
259.552458
  0
SEQEND
  8
0
  0
POLYLINE
  8
1
  6
CONTINUOUS
 66
     1
 70
     0
 210
0.027841
 220
0.000626
 230
-0.999612
 10
0.000000
 20
0.000000
30
-236.177577
  0
VERTEX
  8
1
  6
CONTINUOUS
 10
23.662623
 20
396.435063
30
-236.177577
  0
VERTEX
  8
1
  6
CONTINUOUS
 10
23.582802
 20
396.434319
30
-236.177959
  0
VERTEX
  8
1
  6
CONTINUOUS
 10
23.597054
 20
395.779574
30
-236.216052
  0
VERTEX
  8
1
  6
CONTINUOUS
 10
23.562242
 20
395.528317
30
-236.150981
  0
VERTEX
  8
1
  6
CONTINUOUS
 10
23.572661
 20
395.112843
30
-236.119401
  0
VERTEX
  8
1
  6
CONTINUOUS
 10
23.578165
 20
394.143941
30
-236.121794
  0
VERTEX
  8
1
  6
CONTINUOUS
 10
23.582234
 20
393.274499
30
-236.116239
  0
VERTEX
  8
1
  6
CONTINUOUS
 10
23.596371
 20
392.438556
30
-236.189157
  0
VERTEX
  8
1
  6
CONTINUOUS
 10
23.595674
 20
391.308504
30
-236.207261
  0
VERTEX
  8
1
  6
CONTINUOUS
 10
23.644616
 20
390.028233
30
-236.230844
  0
VERTEX
  8
1
  6
CONTINUOUS
 10
23.719311
 20
388.339873
30
-236.180781
  0
VERTEX
  8
1
  6
CONTINUOUS
 10
23.749705
 20
387.301174
30
-236.151889
  0
VERTEX
  8
1
  6
CONTINUOUS
 10
23.795241
 20
385.849415
30
-236.143136
  0
VERTEX
  8
1
  6
CONTINUOUS
 10
23.818891
 20
384.786422
30
-236.161961
  0
VERTEX
  8
1
  6
CONTINUOUS
 10
24.038477
 20
384.784402
30
-236.162438
  0
SEQEND
  8
0
  0
POLYLINE
  8
1
  6
CONTINUOUS
 66
     1
 70
     0
 210
0.016027
 220
-0.000987
 230
-0.999871
 10
0.000000
 20
0.000000
30
-240.752422
  0
VERTEX
  8
1
  6
CONTINUOUS
 10
56.404223
 20
378.494783
30
-240.752422
  0
VERTEX
  8
1
  6
CONTINUOUS
 10
56.248423
 20
378.528217
30
-240.752344
  0
VERTEX
  8
1
  6
CONTINUOUS
 10
55.987949
 20
378.523362
30
-240.752422
  0
VERTEX
  8
1
  6
CONTINUOUS
 10
55.668203
 20
378.528217
30
-240.752344
  0
SEQEND
  8
0
  0
POLYLINE
  8
1
 66
     1
 70
     0
 210
1.000000
 220
0.000000
 230
0.000000
 10
0.000000
 20
0.000000
30
377.299226
  0
VERTEX
  8
1
 10
32.591504
 20
246.896352
30
377.299226
  0
VERTEX
  8
1
 10
32.597654
 20
246.891005
30
377.322835
  0
SEQEND
  8
0
  0
POLYLINE
  8
1
  6
CONTINUOUS
 66
     1
 70
     0
 210
0.049866
 220
-0.135970
 230
-0.989457
 10
0.000000
 20
0.000000
30
-229.903338
  0
VERTEX
  8
1
  6
CONTINUOUS
 10
365.480668
 20
134.024271
30
-229.903338
  0
VERTEX
  8
1
  6
CONTINUOUS
 10
365.626357
 20
134.033607
30
-229.869532
  0
VERTEX
  8
1
  6
CONTINUOUS
 10
365.730299
 20
134.052080
30
-229.858982
  0
VERTEX
  8
1
  6
CONTINUOUS
 10
365.668195
 20
134.078083
30
-229.880026
  0
VERTEX
  8
1
  6
CONTINUOUS
 10
365.603346
 20
134.130969
30
-229.894956
  0
VERTEX
  8
1
  6
CONTINUOUS
 10
365.537722
 20
134.123008
30
-229.876939
  0
VERTEX
  8
1
  6
CONTINUOUS
 10
365.452858
 20
134.085435
30
-229.863572
  0
SEQEND
  8
0
  0
POLYLINE
  8
1
 66
     1
 70
     0
 210
-0.197916
 220
-0.416542
 230
0.887312
 10
0.000000
 20
0.000000
30
130.813421
  0
VERTEX
  8
1
 10
326.801375
 20
283.651190
30
130.813421
  0
VERTEX
  8
1
 10
326.840362
 20
283.592711
30
130.813421
  0
VERTEX
  8
1
 10
326.846716
 20
283.595754
30
130.813421
  0
SEQEND
  8
0
  0
POLYLINE
  8
1
  6
CONTINUOUS
 66
     1
 70
     0
 210
1.000000
 220
0.000000
 230
0.000000
 10
0.000000
 20
0.000000
30
377.324274
  0
VERTEX
  8
1
  6
CONTINUOUS
 10
32.527428
 20
246.858955
30
377.324274
  0
VERTEX
  8
1
  6
CONTINUOUS
 10
32.527431
 20
246.858946
30
377.324230
  0
SEQEND
  8
0
  0
POLYLINE
  8
1
  6
CONTINUOUS
 66
     1
 70
     0
 210
-0.052280
 220
-0.000683
 230
0.998632
 10
0.000000
 20
0.000000
30
226.511537
  0
VERTEX
  8
1
  6
CONTINUOUS
 10
-25.136289
 20
392.149215
30
226.511537
  0
VERTEX
  8
1
  6
CONTINUOUS
 10
-25.558073
 20
392.156326
30
226.511165
  0
VERTEX
  8
1
  6
CONTINUOUS
 10
-25.565765
 20
391.876935
30
226.511537
  0
VERTEX
  8
1
  6
CONTINUOUS
 10
-25.140842
 20
391.858766
30
226.511165
  0
SEQEND
  8
0
  0
POLYLINE
  8
1
  6
CONTINUOUS
 66
     1
 70
     0
 10
0.000000
 20
0.000000
30
246.704869
  0
VERTEX
  8
1
  6
CONTINUOUS
 10
379.759953
 20
30.094064
30
246.704869
  0
VERTEX
  8
1
  6
CONTINUOUS
 10
379.760220
 20
30.548976
30
246.704869
  0
VERTEX
  8
1
  6
CONTINUOUS
 10
379.445743
 20
30.555200
30
246.704869
  0
VERTEX
  8
1
  6
CONTINUOUS
 10
379.449542
 20
30.094881
30
246.704869
  0
SEQEND
  8
0
  0
POLYLINE
  8
1
  6
CONTINUOUS
 66
     1
 70
     0
 210
-0.053457
 220
0.014349
 230
0.998467
 10
0.000000
 20
0.000000
30
226.461022
  0
VERTEX
  8
1
  6
CONTINUOUS
 10
-127.625727
 20
372.417442
30
226.461022
  0
VERTEX
  8
1
  6
CONTINUOUS
 10
-128.016655
 20
372.315885
30
226.455851
  0
VERTEX
  8
1
  6
CONTINUOUS
 10
-127.941773
 20
372.004380
30
226.461022
  0
VERTEX
  8
1
  6
CONTINUOUS
 10
-127.525039
 20
372.113579
30
226.455851
  0
SEQEND
  8
0
  0
POLYLINE
  8
1
  6
CONTINUOUS
 66
     1
 70
     0
 210
-0.020711
 220
-0.008812
 230
-0.999747
 10
0.000000
 20
0.000000
30
-254.844512
  0
VERTEX
  8
1
  6
CONTINUOUS
 10
121.728910
 20
-357.320375
30
-254.844512
  0
VERTEX
  8
1
  6
CONTINUOUS
 10
121.320152
 20
-357.494758
30
-254.838338
  0
VERTEX
  8
1
  6
CONTINUOUS
 10
121.437980
 20
-357.768973
30
-254.844512
  0
VERTEX
  8
1
  6
CONTINUOUS
 10
121.846322
 20
-357.596037
30
-254.838338
  0
SEQEND
  8
0
  0
POLYLINE
  8
1
  6
CONTINUOUS
 66
     1
 70
     0
 210
0.006188
 220
0.005035
 230
-0.999968
 10
0.000000
 20
0.000000
30
-244.201841
  0
VERTEX
  8
1
  6
CONTINUOUS
 10
-383.517788
 20
31.321976
30
-244.201841
  0
VERTEX
  8
1
  6
CONTINUOUS
 10
-383.518088
 20
31.783203
30
-244.204074
  0
VERTEX
  8
1
  6
CONTINUOUS
 10
-383.809265
 20
31.783452
30
-244.201841
  0
VERTEX
  8
1
  6
CONTINUOUS
 10
-383.824084
 20
31.321588
30
-244.204074
  0
SEQEND
  8
0
  0
POLYLINE
  8
1
  6
CONTINUOUS
 66
     1
 70
     0
 210
0.000000
 220
0.000000
 230
-1.000000
 10
0.000000
 20
0.000000
30
-246.729026
  0
VERTEX
  8
1
  6
CONTINUOUS
 10
-382.337429
 20
30.091619
30
-246.729026
  0
VERTEX
  8
1
  6
CONTINUOUS
 10
-382.338604
 20
30.523305
30
-246.729026
  0
VERTEX
  8
1
  6
CONTINUOUS
 10
-382.614686
 20
30.516241
30
-246.729026
  0
VERTEX
  8
1
  6
CONTINUOUS
 10
-382.613996
 20
30.091258
30
-246.729026
  0
SEQEND
  8
0
  0
LINE
  8
1
  6
CONTINUOUS
 10
382.816499
 20
29.994138
 30
246.875792
 11
381.434107
 21
29.996250
 31
246.856285
  0
POINT
  8
1
  6
CONTINUOUS
 10
381.441295
 20
29.879855
 30
246.888008
  0
POLYLINE
  8
1
  6
CONTINUOUS
 66
     1
 70
     0
 210
-0.013650
 220
0.020594
 230
0.999695
 10
0.000000
 20
0.000000
30
242.221418
  0
VERTEX
  8
1
  6
CONTINUOUS
 10
-334.450690
 20
191.873596
30
242.221418
  0
VERTEX
  8
1
  6
CONTINUOUS
 10
-335.601116
 20
192.627687
30
242.225851
  0
VERTEX
  8
1
  6
CONTINUOUS
 10
-336.858209
 20
190.724846
30
242.215054
  0
VERTEX
  8
1
  6
CONTINUOUS
 10
-335.704080
 20
189.965301
30
242.232099
  0
VERTEX
  8
1
  6
CONTINUOUS
 10
-334.441373
 20
191.867179
30
242.208814
  0
SEQEND
  8
0
  0
LINE
  8
1
  6
CONTINUOUS
 10
378.920269
 20
29.980041
 30
246.835622
 11
380.286607
 21
29.979239
 31
246.832589
  0
POLYLINE
  8
1
  6
CONTINUOUS
 66
     1
 70
     0
 210
-0.056326
 220
0.020620
 230
0.998199
 10
0.000000
 20
0.000000
30
225.566101
  0
VERTEX
  8
1
  6
CONTINUOUS
 10
-158.824768
 20
360.825630
30
225.566101
  0
VERTEX
  8
1
  6
CONTINUOUS
 10
-160.686074
 20
360.135925
30
225.537465
  0
VERTEX
  8
1
  6
CONTINUOUS
 10
-160.339429
 20
359.186368
30
225.571618
  0
VERTEX
  8
1
  6
CONTINUOUS
 10
-158.836271
 20
359.732282
30
225.537519
  0
VERTEX
  8
1
  6
CONTINUOUS
 10
-158.474224
 20
359.863196
30
225.542897
  0
SEQEND
  8
0
  0
POLYLINE
  8
1
  6
CONTINUOUS
 66
     1
 70
     0
 210
0.028124
 220
-0.015855
 230
-0.999479
 10
0.000000
 20
0.000000
30
-236.387377
  0
VERTEX
  8
1
  6
CONTINUOUS
 10
213.617937
 20
325.439095
30
-236.387377
  0
VERTEX
  8
1
  6
CONTINUOUS
 10
215.251816
 20
324.492472
30
-236.404529
  0
VERTEX
  8
1
  6
CONTINUOUS
 10
215.784296
 20
325.410943
30
-236.387377
  0
VERTEX
  8
1
  6
CONTINUOUS
 10
214.125432
 20
326.342551
30
-236.404529
  0
SEQEND
  8
0
  0
POLYLINE
  8
1
  6
CONTINUOUS
 66
     1
 70
     0
 210
0.010229
 220
-0.006396
 230
-0.999927
 10
0.000000
 20
0.000000
30
-242.998691
  0
VERTEX
  8
1
  6
CONTINUOUS
 10
-387.338123
 20
28.534292
30
-242.998691
  0
VERTEX
  8
1
  6
CONTINUOUS
 10
-387.336501
 20
28.958259
30
-242.995966
  0
VERTEX
  8
1
  6
CONTINUOUS
 10
-387.621692
 20
28.963683
30
-242.998691
  0
VERTEX
  8
1
  6
CONTINUOUS
 10
-387.619150
 20
28.533568
30
-242.995966
  0
SEQEND
  8
0
  0
POLYLINE
  8
1
  6
CONTINUOUS
 66
     1
 70
     0
 210
-0.001195
 220
-0.006952
 230
-0.999975
 10
0.000000
 20
0.000000
30
-247.426598
  0
VERTEX
  8
1
  6
CONTINUOUS
 10
-384.203194
 20
28.369542
30
-247.426598
  0
VERTEX
  8
1
  6
CONTINUOUS
 10
-384.195285
 20
28.794121
30
-247.424097
  0
VERTEX
  8
1
  6
CONTINUOUS
 10
-384.482155
 20
28.794366
30
-247.426598
  0
VERTEX
  8
1
  6
CONTINUOUS
 10
-384.485979
 20
28.368814
30
-247.424097
  0
SEQEND
  8
0
  0
POLYLINE
  8
1
  6
CONTINUOUS
 66
     1
 70
     0
 210
0.020378
 220
-0.011222
 230
-0.999729
 10
0.000000
 20
0.000000
30
-239.196218
  0
VERTEX
  8
1
  6
CONTINUOUS
 10
211.673781
 20
327.641655
30
-239.196218
  0
VERTEX
  8
1
  6
CONTINUOUS
 10
212.066136
 20
327.429919
30
-239.201146
  0
VERTEX
  8
1
  6
CONTINUOUS
 10
212.189218
 20
327.678744
30
-239.196218
  0
VERTEX
  8
1
  6
CONTINUOUS
 10
211.814007
 20
327.897204
30
-239.201146
  0
SEQEND
  8
0
  0
POLYLINE
  8
1
  6
CONTINUOUS
 66
     1
 70
     0
 210
-0.037359
 220
-0.009170
 230
0.999260
 10
0.000000
 20
0.000000
30
231.901228
  0
VERTEX
  8
1
  6
CONTINUOUS
 10
63.174884
 20
392.848339
30
231.901228
  0
VERTEX
  8
1
  6
CONTINUOUS
 10
62.747261
 20
392.953981
30
231.898053
  0
VERTEX
  8
1
  6
CONTINUOUS
 10
62.676433
 20
392.669672
30
231.901228
  0
VERTEX
  8
1
  6
CONTINUOUS
 10
63.108679
 20
392.567230
30
231.898053
  0
SEQEND
  8
0
  0
POLYLINE
  8
1
  6
CONTINUOUS
 66
     1
 70
     0
 210
-0.030214
 220
-0.011812
 230
0.999474
 10
0.000000
 20
0.000000
30
234.640525
  0
VERTEX
  8
1
  6
CONTINUOUS
 10
112.988488
 20
379.469668
30
234.640525
  0
VERTEX
  8
1
  6
CONTINUOUS
 10
112.584868
 20
379.627988
30
234.645649
  0
VERTEX
  8
1
  6
CONTINUOUS
 10
112.484345
 20
379.360352
30
234.640525
  0
VERTEX
  8
1
  6
CONTINUOUS
 10
112.886438
 20
379.202487
30
234.645649
  0
SEQEND
  8
0
  0
POLYLINE
  8
1
  6
CONTINUOUS
 66
     1
 70
     0
 210
-0.011877
 220
-0.003775
 230
0.999922
 10
0.000000
 20
0.000000
30
242.092623
  0
VERTEX
  8
1
  6
CONTINUOUS
 10
389.831245
 20
31.004675
30
242.092623
  0
VERTEX
  8
1
  6
CONTINUOUS
 10
389.828435
 20
31.419621
30
242.095076
  0
VERTEX
  8
1
  6
CONTINUOUS
 10
389.562655
 20
31.419767
30
242.092623
  0
VERTEX
  8
1
  6
CONTINUOUS
 10
389.565862
 20
30.988384
30
242.095076
  0
SEQEND
  8
0
  0
POLYLINE
  8
2
  6
CONTINUOUS
 66
     1
 70
     0
 210
0.017825
 220
-0.239599
 230
-0.970708
 10
0.000000
 20
0.000000
30
-240.106434
  0
VERTEX
  8
2
  6
CONTINUOUS
 10
390.581154
 20
58.306529
30
-240.106434
  0
VERTEX
  8
2
  6
CONTINUOUS
 10
388.990799
 20
58.218101
30
-240.109006
  0
VERTEX
  8
2
  6
CONTINUOUS
 10
387.154064
 20
58.091755
30
-240.106948
  0
VERTEX
  8
2
  6
CONTINUOUS
 10
384.296342
 20
57.866376
30
-240.109848
  0
VERTEX
  8
2
  6
CONTINUOUS
 10
381.606896
 20
57.679741
30
-240.124934
  0
VERTEX
  8
2
  6
CONTINUOUS
 10
380.336232
 20
57.564885
30
-240.086257
  0
VERTEX
  8
2
  6
CONTINUOUS
 10
378.885582
 20
57.447766
30
-240.109023
  0
VERTEX
  8
2
  6
CONTINUOUS
 10
378.515467
 20
57.417537
30
-240.093396
  0
VERTEX
  8
2
  6
CONTINUOUS
 10
378.517207
 20
57.344700
30
-240.111869
  0
VERTEX
  8
2
  6
CONTINUOUS
 10
381.254448
 20
57.559138
30
-240.100567
  0
VERTEX
  8
2
  6
CONTINUOUS
 10
383.099056
 20
57.701486
30
-240.099998
  0
VERTEX
  8
2
  6
CONTINUOUS
 10
384.297470
 20
57.798882
30
-240.115887
  0
VERTEX
  8
2
  6
CONTINUOUS
 10
385.640424
 20
57.899855
30
-240.101117
  0
VERTEX
  8
2
  6
CONTINUOUS
 10
387.321305
 20
58.033957
30
-240.103922
  0
VERTEX
  8
2
  6
CONTINUOUS
 10
388.748252
 20
58.133317
30
-240.110438
  0
VERTEX
  8
2
  6
CONTINUOUS
 10
389.874030
 20
58.209553
30
-240.139119
  0
VERTEX
  8
2
  6
CONTINUOUS
 10
390.585760
 20
58.233052
30
-240.119971
  0
VERTEX
  8
2
  6
CONTINUOUS
 10
390.581154
 20
58.305327
30
-240.101577
  0
SEQEND
  8
0
  0
POLYLINE
  8
2
  6
CONTINUOUS
 66
     1
 70
     0
 210
0.020737
 220
-0.243824
 230
-0.969598
 10
0.000000
 20
0.000000
30
-238.713783
  0
VERTEX
  8
2
  6
CONTINUOUS
 10
390.521549
 20
63.912413
30
-238.713783
  0
VERTEX
  8
2
  6
CONTINUOUS
 10
390.517307
 20
63.978326
30
-238.694630
  0
VERTEX
  8
2
  6
CONTINUOUS
 10
388.587704
 20
63.839583
30
-238.708734
  0
VERTEX
  8
2
  6
CONTINUOUS
 10
386.603492
 20
63.700999
30
-238.700109
  0
VERTEX
  8
2
  6
CONTINUOUS
 10
385.360302
 20
63.605512
30
-238.707301
  0
VERTEX
  8
2
  6
CONTINUOUS
 10
384.238255
 20
63.500558
30
-238.714212
  0
VERTEX
  8
2
  6
CONTINUOUS
 10
383.829723
 20
63.462217
30
-238.715881
  0
VERTEX
  8
2
  6
CONTINUOUS
 10
382.086855
 20
63.316201
30
-238.727817
  0
VERTEX
  8
2
  6
CONTINUOUS
 10
380.467245
 20
63.171787
30
-238.718882
  0
VERTEX
  8
2
  6
CONTINUOUS
 10
379.074858
 20
63.047285
30
-238.702253
  0
VERTEX
  8
2
  6
CONTINUOUS
 10
378.452597
 20
62.974385
30
-238.698405
  0
VERTEX
  8
2
  6
CONTINUOUS
 10
378.460219
 20
62.903972
30
-238.721070
  0
VERTEX
  8
2
  6
CONTINUOUS
 10
379.074570
 20
62.971061
30
-238.717041
  0
VERTEX
  8
2
  6
CONTINUOUS
 10
381.245804
 20
63.168864
30
-238.732077
  0
VERTEX
  8
2
  6
CONTINUOUS
 10
382.087844
 20
63.238049
30
-238.713282
  0
VERTEX
  8
2
  6
CONTINUOUS
 10
383.494930
 20
63.351559
30
-238.705991
  0
VERTEX
  8
2
  6
CONTINUOUS
 10
384.250063
 20
63.424892
30
-238.709283
  0
VERTEX
  8
2
  6
CONTINUOUS
 10
385.354954
 20
63.529374
30
-238.708275
  0
VERTEX
  8
2
  6
CONTINUOUS
 10
386.610328
 20
63.623982
30
-238.700414
  0
VERTEX
  8
2
  6
CONTINUOUS
 10
388.098180
 20
63.730559
30
-238.697542
  0
VERTEX
  8
2
  6
CONTINUOUS
 10
389.843343
 20
63.865038
30
-238.708094
  0
VERTEX
  8
2
  6
CONTINUOUS
 10
390.521533
 20
63.909834
30
-238.702514
  0
SEQEND
  8
0
  0
LINE
  8
1
  6
CONTINUOUS
 10
386.266753
 20
28.468828
 30
246.993466
 11
386.264494
 21
28.782943
 31
246.993466
  0
LINE
  8
1
  6
CONTINUOUS
 10
386.351634
 20
28.779874
 30
246.993466
 11
386.350991
 21
28.468803
 31
246.993466
  0
POLYLINE
  8
1
  6
CONTINUOUS
 66
     1
 70
     0
 210
-0.000039
 220
0.003525
 230
-0.999994
 10
0.000000
 20
0.000000
30
-246.930026
  0
VERTEX
  8
1
  6
CONTINUOUS
 10
-387.038338
 20
29.348458
30
-246.930026
  0
VERTEX
  8
1
  6
CONTINUOUS
 10
-387.042169
 20
29.847245
30
-246.930036
  0
VERTEX
  8
1
  6
CONTINUOUS
 10
-387.116801
 20
29.851084
30
-246.930026
  0
VERTEX
  8
1
  6
CONTINUOUS
 10
-387.112116
 20
29.349647
30
-246.930036
  0
SEQEND
  8
0
  0
POLYLINE
  8
1
  6
CONTINUOUS
 66
     1
 70
     0
 210
0.018117
 220
-0.129068
 230
-0.991470
 10
0.000000
 20
0.000000
30
-241.584086
  0
VERTEX
  8
1
  6
CONTINUOUS
 10
387.367115
 20
57.284858
30
-241.584086
  0
VERTEX
  8
1
  6
CONTINUOUS
 10
388.862945
 20
57.480014
30
-241.586740
  0
VERTEX
  8
1
  6
CONTINUOUS
 10
388.821522
 20
57.777400
30
-241.570708
  0
VERTEX
  8
1
  6
CONTINUOUS
 10
388.127333
 20
57.687756
30
-241.589453
  0
VERTEX
  8
1
  6
CONTINUOUS
 10
386.690828
 20
57.507352
30
-241.583581
  0
VERTEX
  8
1
  6
CONTINUOUS
 10
385.252934
 20
57.301593
30
-241.570166
  0
VERTEX
  8
1
  6
CONTINUOUS
 10
384.048214
 20
57.132114
30
-241.577216
  0
VERTEX
  8
1
  6
CONTINUOUS
 10
382.800042
 20
56.954798
30
-241.578334
  0
VERTEX
  8
1
  6
CONTINUOUS
 10
381.532347
 20
56.776971
30
-241.579956
  0
VERTEX
  8
1
  6
CONTINUOUS
 10
380.349176
 20
56.616099
30
-241.592401
  0
VERTEX
  8
1
  6
CONTINUOUS
 10
379.207620
 20
56.456092
30
-241.576451
  0
VERTEX
  8
1
  6
CONTINUOUS
 10
378.019704
 20
56.286906
30
-241.574231
  0
SEQEND
  8
0
  0
POLYLINE
  8
1
  6
CONTINUOUS
 66
     1
 70
     0
 210
0.000130
 220
0.013490
 230
0.999909
 10
0.000000
 20
0.000000
30
247.423887
  0
VERTEX
  8
1
  6
CONTINUOUS
 10
387.164826
 20
25.144876
30
247.423887
  0
VERTEX
  8
1
  6
CONTINUOUS
 10
387.162782
 20
25.441040
30
247.423887
  0
VERTEX
  8
1
  6
CONTINUOUS
 10
387.092410
 20
25.441720
30
247.423887
  0
SEQEND
  8
0
  0
POLYLINE
  8
1
  6
CONTINUOUS
 66
     1
 70
     0
 210
-0.037758
 220
-0.016912
 230
-0.999144
 10
0.000000
 20
0.000000
30
-261.403553
  0
VERTEX
  8
1
  6
CONTINUOUS
 10
129.903432
 20
-345.047525
30
-261.403553
  0
VERTEX
  8
1
  6
CONTINUOUS
 10
128.570041
 20
-345.643886
30
-261.390917
  0
VERTEX
  8
1
  6
CONTINUOUS
 10
128.592249
 20
-345.744285
30
-261.411050
  0
VERTEX
  8
1
  6
CONTINUOUS
 10
128.636461
 20
-345.748837
30
-261.415987
  0
VERTEX
  8
1
  6
CONTINUOUS
 10
128.711368
 20
-345.914614
30
-261.422852
  0
VERTEX
  8
1
  6
CONTINUOUS
 10
128.686852
 20
-345.955838
30
-261.424558
  0
VERTEX
  8
1
  6
CONTINUOUS
 10
128.703677
 20
-345.982763
30
-261.426104
  0
VERTEX
  8
1
  6
CONTINUOUS
 10
128.639095
 20
-346.090959
30
-261.421950
  0
VERTEX
  8
1
  6
CONTINUOUS
 10
129.780704
 20
-345.556528
30
-261.401115
  0
VERTEX
  8
1
  6
CONTINUOUS
 10
131.205774
 20
-344.915102
30
-261.404779
  0
VERTEX
  8
1
  6
CONTINUOUS
 10
131.733688
 20
-344.676051
30
-261.429839
  0
SEQEND
  8
0
  0
POLYLINE
  8
1
  6
CONTINUOUS
 66
     1
 70
     0
 210
-0.116102
 220
0.005904
 230
0.993220
 10
0.000000
 20
0.000000
30
201.517351
  0
VERTEX
  8
1
  6
CONTINUOUS
 10
-52.391672
 20
401.307801
30
201.517351
  0
VERTEX
  8
1
  6
CONTINUOUS
 10
-51.182352
 20
401.353049
30
201.500696
  0
VERTEX
  8
1
  6
CONTINUOUS
 10
-50.192252
 20
401.406458
30
201.532667
  0
VERTEX
  8
1
  6
CONTINUOUS
 10
-48.535703
 20
401.482532
30
201.533317
  0
VERTEX
  8
1
  6
CONTINUOUS
 10
-48.548510
 20
401.693715
30
201.515115
  0
VERTEX
  8
1
  6
CONTINUOUS
 10
-48.409641
 20
401.749926
30
201.515484
  0
VERTEX
  8
1
  6
CONTINUOUS
 10
-48.329490
 20
401.779640
30
201.515481
  0
VERTEX
  8
1
  6
CONTINUOUS
 10
-48.262624
 20
401.790644
30
201.521143
  0
VERTEX
  8
1
  6
CONTINUOUS
 10
-47.747853
 20
401.820063
30
201.535073
  0
VERTEX
  8
1
  6
CONTINUOUS
 10
-47.734744
 20
401.525246
30
201.555682
  0
VERTEX
  8
1
  6
CONTINUOUS
 10
-45.919022
 20
401.614888
30
201.562562
  0
VERTEX
  8
1
  6
CONTINUOUS
 10
-45.934319
 20
401.911062
30
201.547052
  0
SEQEND
  8
0
  0
POINT
  8
2
  6
CONTINUOUS
 10
377.601165
 20
26.780150
 30
245.423409
  0
POLYLINE
  8
1
  6
CONTINUOUS
 66
     1
 70
     0
 210
1.000000
 220
0.000000
 230
0.000000
 10
0.000000
 20
0.000000
30
377.600599
  0
VERTEX
  8
1
  6
CONTINUOUS
 10
26.704863
 20
246.901149
30
377.600599
  0
VERTEX
  8
1
  6
CONTINUOUS
 10
26.703335
 20
246.901574
30
377.306904
  0
SEQEND
  8
0
  0
POINT
  8
2
  6
CONTINUOUS
 10
389.133316
 20
25.417445
 30
245.423409
  0
POLYLINE
  8
1
  6
CONTINUOUS
 66
     1
 70
     0
 210
-0.027199
 220
0.021763
 230
-0.999393
 10
0.000000
 20
0.000000
30
-256.947315
  0
VERTEX
  8
1
  6
CONTINUOUS
 10
-262.812638
 20
-279.651411
30
-256.947315
  0
VERTEX
  8
1
  6
CONTINUOUS
 10
-262.937863
 20
-279.555260
30
-256.943964
  0
VERTEX
  8
1
  6
CONTINUOUS
 10
-262.876669
 20
-279.462159
30
-256.960575
  0
VERTEX
  8
1
  6
CONTINUOUS
 10
-262.974531
 20
-279.385700
30
-256.956615
  0
VERTEX
  8
1
  6
CONTINUOUS
 10
-262.884515
 20
-279.268253
30
-256.953816
  0
VERTEX
  8
1
  6
CONTINUOUS
 10
-262.973075
 20
-279.200831
30
-256.951466
  0
VERTEX
  8
1
  6
CONTINUOUS
 10
-263.148107
 20
-279.414100
30
-256.956223
  0
SEQEND
  8
0
  0
ENDSEC
  0
EOF
