  0
SECTION
  2
HEADER
  9
$ACADVER
  1
AC1006
  9
$INSBASE
 10
0.0
 20
0.0
 30
0.0
  9
$EXTMIN
 10
-247.253315
 20
29.710008
  9
$EXTMAX
 10
-237.358611
 20
37.456764
  9
$LIMMIN
 10
-248.253315
 20
28.710008
  9
$LIMMAX
 10
-236.358611
 20
36.456764
  9
$ORTHOMODE
 70
     0
  9
$REGENMODE
 70
     1
  9
$FILLMODE
 70
     1
  9
$QTEXTMODE
 70
     0
  9
$MIRRTEXT
 70
     1
  9
$DRAGMODE
 70
     2
  9
$LTSCALE
 40
1.0
  9
$OSMODE
 70
     0
  9
$ATTMODE
 70
     1
  9
$TEXTSIZE
 40
0.2
  9
$TRACEWID
 40
0.05
  9
$TEXTSTYLE
  7
STANDARD
  9
$CLAYER
  8
0
  9
$CELTYPE
  6
BYLAYER
  9
$CECOLOR
 62
   256
  9
$DIMSCALE
 40
1.0
  9
$DIMASZ
 40
0.18
  9
$DIMEXO
 40
0.0625
  9
$DIMDLI
 40
0.38
  9
$DIMRND
 40
0.0
  9
$DIMDLE
 40
0.0
  9
$DIMEXE
 40
0.18
  9
$DIMTP
 40
0.0
  9
$DIMTM
 40
0.0
  9
$DIMTXT
 40
0.18
  9
$DIMCEN
 40
0.09
  9
$DIMTSZ
 40
0.0
  9
$DIMTOL
 70
     0
  9
$DIMLIM
 70
     0
  9
$DIMTIH
 70
     1
  9
$DIMTOH
 70
     1
  9
$DIMSE1
 70
     0
  9
$DIMSE2
 70
     0
  9
$DIMTAD
 70
     0
  9
$DIMZIN
 70
     0
  9
$DIMBLK
  1

  9
$DIMASO
 70
     1
  9
$DIMSHO
 70
     0
  9
$DIMPOST
  1

  9
$DIMAPOST
  1

  9
$DIMALT
 70
     0
  9
$DIMALTD
 70
     2
  9
$DIMALTF
 40
25.4
  9
$DIMLFAC
 40
1.0
  9
$DIMTOFL
 70
     0
  9
$DIMTVP
 40
0.0
  9
$DIMTIX
 70
     0
  9
$DIMSOXD
 70
     0
  9
$DIMSAH
 70
     0
  9
$DIMBLK1
  1

  9
$DIMBLK2
  1

  9
$LUNITS
 70
     2
  9
$LUPREC
 70
     4
  9
$AXISMODE
 70
     0
  9
$AXISUNIT
 10
0.0
 20
0.0
  9
$SKETCHINC
 40
0.1
  9
$FILLETRAD
 40
0.0
  9
$AUNITS
 70
     0
  9
$AUPREC
 70
     0
  9
$MENU
  1
acad
  9
$ELEVATION
 40
0.0
  9
$THICKNESS
 40
0.0
  9
$LIMCHECK
 70
     0
  9
$BLIPMODE
 70
     1
  9
$CHAMFERA
 40
0.0
  9
$CHAMFERB
 40
0.0
  9
$SKPOLY
 70
     0
  9
$TDCREATE
 40
2447847.4728913195
  9
$TDUPDATE
 40
2447847.4728913195
  9
$TDINDWG
 40
0.0000000000
  9
$TDUSRTIMER
 40
0.0000000000
  9
$USRTIMER
 70
     1
  9
$ANGBASE
 50
0.0
  9
$ANGDIR
 70
     0
  9
$PDMODE
 70
     0
  9
$PDSIZE
 40
0.0
  9
$PLINEWID
 40
0.0
  9
$COORDS
 70
     0
  9
$SPLFRAME
 70
     0
  9
$SPLINETYPE
 70
     6
  9
$SPLINESEGS
 70
     8
  9
$ATTDIA
 70
     0
  9
$ATTREQ
 70
     1
  9
$HANDLING
 70
     0
  9
$HANDSEED
  5
0
  9
$SURFTAB1
 70
     6
  9
$SURFTAB2
 70
     6
  9
$SURFTYPE
 70
     6
  9
$SURFU
 70
     6
  9
$SURFV
 70
     6
  9
$FLATLAND
 70
     0
  9
$UCSNAME
  2

  9
$UCSORG
 10
0.0
 20
0.0
 30
0.0
  9
$UCSXDIR
 10
1.0
 20
0.0
 30
0.0
  9
$UCSYDIR
 10
0.0
 20
1.0
 30
0.0
  9
$USERI1
 70
     0
  9
$USERI2
 70
     0
  9
$USERI3
 70
     0
  9
$USERI4
 70
     0
  9
$USERI5
 70
     0
  9
$USERR1
 40
0.0
  9
$USERR2
 40
0.0
  9
$USERR3
 40
0.0
  9
$USERR4
 40
0.0
  9
$USERR5
 40
0.0
  9
$WORLDVIEW
 70
     1
  0
ENDSEC
  0
SECTION
  2
TABLES
  0
TABLE
  2
LTYPE
 70
    2
  0
LTYPE
  2
CONTINUOUS
 70
    64
3
Solid line
 72
    65
 73
0
 40
0.000000
  0
LTYPE
  2
HIDDEN
 70
    64
3
_ _ _ _ _ _ _ _ _ _ _ _ _ _ _ _ _ _ _ _ _ _ _
 72
    65
 73
2
 40
0.375000
 49
0.250000
 49
-0.125000
  0
ENDTAB
  0
TABLE
  2
LAYER
 70
    2
  0
LAYER
  2
0
 70
    64
 62
7
  6
CONTINUOUS
  0
LAYER
  2
1
 70
    64
 62
7
  6
CONTINUOUS
  0
ENDTAB
  0
TABLE
  2
STYLE
 70
    0
  0
ENDTAB
  0
ENDSEC
  0
SECTION
  2
BLOCKS
  0
ENDSEC
  0
SECTION
  2
ENTITIES
  0
POLYLINE
  8
1
  6
CONTINUOUS
 66
     1
 70
     0
 210
-0.028995
 220
-0.994724
 230
0.098408
 10
0.000000
 20
0.000000
30
14.838512
  0
VERTEX
  8
1
  6
CONTINUOUS
 10
-238.143746
 20
388.615681
30
14.838512
  0
VERTEX
  8
1
  6
CONTINUOUS
 10
-240.955278
 20
389.230646
30
14.836539
  0
VERTEX
  8
1
  6
CONTINUOUS
 10
-244.197291
 20
389.916104
30
14.838512
  0
VERTEX
  8
1
  6
CONTINUOUS
 10
-246.803009
 20
389.897750
30
14.836539
  0
SEQEND
  8
0
  0
POLYLINE
  8
1
  6
CONTINUOUS
 66
     1
 70
     0
 210
0.095593
 220
0.005213
 230
-0.995407
 10
0.000000
 20
0.000000
30
-409.942849
  0
VERTEX
  8
1
  6
CONTINUOUS
 10
47.969032
 20
-202.694402
30
-409.942849
  0
VERTEX
  8
1
  6
CONTINUOUS
 10
47.975483
 20
-202.787051
30
-409.951759
  0
VERTEX
  8
1
  6
CONTINUOUS
 10
48.088633
 20
-202.785776
30
-409.952299
  0
VERTEX
  8
1
  6
CONTINUOUS
 10
48.088031
 20
-202.780550
30
-409.951796
  0
VERTEX
  8
1
  6
CONTINUOUS
 10
48.127249
 20
-202.785764
30
-409.952298
  0
VERTEX
  8
1
  6
CONTINUOUS
 10
48.117536
 20
-202.681128
30
-409.942234
  0
VERTEX
  8
1
  6
CONTINUOUS
 10
48.070513
 20
-202.684528
30
-409.942562
  0
VERTEX
  8
1
  6
CONTINUOUS
 10
48.068480
 20
-202.689890
30
-409.943077
  0
VERTEX
  8
1
  6
CONTINUOUS
 10
47.971200
 20
-202.688949
30
-409.970802
  0
SEQEND
  8
0
  0
POLYLINE
  8
1
  6
CONTINUOUS
 66
     1
 70
     0
 210
0.043233
 220
0.260602
 230
0.964478
 10
0.000000
 20
0.000000
30
373.571176
  0
VERTEX
  8
1
  6
CONTINUOUS
 10
247.610849
 20
108.654871
30
373.571176
  0
VERTEX
  8
1
  6
CONTINUOUS
 10
247.794548
 20
108.914417
30
373.571176
  0
VERTEX
  8
1
  6
CONTINUOUS
 10
247.642544
 20
108.991778
30
373.571176
  0
SEQEND
  8
0
  0
POLYLINE
  8
1
  6
CONTINUOUS
 66
     1
 70
     0
 210
0.097914
 220
0.232254
 230
0.967714
 10
0.000000
 20
0.000000
30
360.414961
  0
VERTEX
  8
1
  6
CONTINUOUS
 10
239.511460
 20
159.790661
30
360.414961
  0
VERTEX
  8
1
  6
CONTINUOUS
 10
239.590048
 20
159.967670
30
360.420632
  0
VERTEX
  8
1
  6
CONTINUOUS
 10
239.652083
 20
160.060060
30
360.414961
  0
VERTEX
  8
1
  6
CONTINUOUS
 10
239.520845
 20
160.119371
30
360.420632
  0
SEQEND
  8
0
  0
POLYLINE
  8
1
  6
CONTINUOUS
 66
     1
 70
     0
 210
-0.157281
 220
0.318470
 230
0.934794
 10
0.000000
 20
0.000000
30
413.228552
  0
VERTEX
  8
1
  6
CONTINUOUS
 10
205.209105
 20
7.969539
30
413.228552
  0
VERTEX
  8
1
  6
CONTINUOUS
 10
205.540329
 20
8.053064
30
413.228552
  0
VERTEX
  8
1
  6
CONTINUOUS
 10
205.499393
 20
8.167211
30
413.228552
  0
SEQEND
  8
0
  0
POLYLINE
  8
1
  6
CONTINUOUS
 66
     1
 70
     0
 210
-0.072846
 220
0.363251
 230
0.928839
 10
0.000000
 20
0.000000
30
391.682859
  0
VERTEX
  8
1
  6
CONTINUOUS
 10
234.473321
 20
68.472284
30
391.682859
  0
VERTEX
  8
1
  6
CONTINUOUS
 10
234.605799
 20
68.543873
30
391.668144
  0
VERTEX
  8
1
  6
CONTINUOUS
 10
234.757303
 20
68.646668
30
391.682859
  0
VERTEX
  8
1
  6
CONTINUOUS
 10
234.659223
 20
68.761854
30
391.668144
  0
SEQEND
  8
0
  0
POLYLINE
  8
1
  6
CONTINUOUS
 66
     1
 70
     0
 210
-0.091729
 220
0.230219
 230
0.968806
 10
0.000000
 20
0.000000
30
407.397027
  0
VERTEX
  8
1
  6
CONTINUOUS
 10
216.232270
 20
-22.027195
30
407.397027
  0
VERTEX
  8
1
  6
CONTINUOUS
 10
216.528456
 20
-21.906157
30
407.397027
  0
VERTEX
  8
1
  6
CONTINUOUS
 10
216.470743
 20
-21.805069
30
407.397027
  0
SEQEND
  8
0
  0
POLYLINE
  8
1
  6
CONTINUOUS
 66
     1
 70
     0
 210
0.077277
 220
0.172941
 230
0.981896
 10
0.000000
 20
0.000000
30
368.951322
  0
VERTEX
  8
1
  6
CONTINUOUS
 10
238.522325
 20
142.530626
30
368.951322
  0
VERTEX
  8
1
  6
CONTINUOUS
 10
238.627675
 20
142.809057
30
368.951322
  0
VERTEX
  8
1
  6
CONTINUOUS
 10
238.614613
 20
142.810798
30
368.951322
  0
SEQEND
  8
0
  0
POLYLINE
  8
1
  6
CONTINUOUS
 66
     1
 70
     0
 210
-0.277250
 220
0.441042
 230
0.853589
 10
0.000000
 20
0.000000
30
415.291920
  0
VERTEX
  8
1
  6
CONTINUOUS
 10
191.107261
 20
66.868335
30
415.291920
  0
VERTEX
  8
1
  6
CONTINUOUS
 10
191.444703
 20
66.910095
30
415.291920
  0
VERTEX
  8
1
  6
CONTINUOUS
 10
191.440085
 20
66.933508
30
415.291920
  0
SEQEND
  8
0
  0
POLYLINE
  8
1
  6
CONTINUOUS
 66
     1
 70
     0
 210
-0.249026
 220
0.414808
 230
0.875169
 10
0.000000
 20
0.000000
30
415.865199
  0
VERTEX
  8
1
  6
CONTINUOUS
 10
194.670405
 20
52.508648
30
415.865199
  0
VERTEX
  8
1
  6
CONTINUOUS
 10
195.008366
 20
52.595852
30
415.865199
  0
VERTEX
  8
1
  6
CONTINUOUS
 10
194.995057
 20
52.629918
30
415.865199
  0
SEQEND
  8
0
  0
POLYLINE
  8
1
  62
4
  6
CONTINUOUS
 66
     1
 70
     0
 210
1.000000
 220
0.000000
 230
0.000000
 10
0.000000
 20
0.000000
30
-245.936715
  0
VERTEX
  8
1
  62
4
  6
CONTINUOUS
 10
31.489215
 20
389.421769
30
-245.936715
  0
VERTEX
  8
1
  62
4
  6
CONTINUOUS
 10
31.490196
 20
389.422099
30
-245.939684
  0
SEQEND
  8
0
  0
POLYLINE
  8
1
  62
4
  6
CONTINUOUS
 66
     1
 70
     0
 210
1.000000
 220
0.000000
 230
0.000000
 10
0.000000
 20
0.000000
30
-245.627284
  0
VERTEX
  8
1
  62
4
  6
CONTINUOUS
 10
33.092112
 20
389.312992
30
-245.627284
  0
VERTEX
  8
1
  62
4
  6
CONTINUOUS
 10
33.094422
 20
389.313322
30
-245.626302
  0
SEQEND
  8
0
  0
POLYLINE
  8
1
  6
CONTINUOUS
 66
     1
 70
     0
 210
-0.242264
 220
0.102136
 230
-0.964819
 10
0.000000
 20
0.000000
30
-313.430701
  0
VERTEX
  8
1
  6
CONTINUOUS
 10
64.476314
 20
325.396993
30
-313.430701
  0
VERTEX
  8
1
  6
CONTINUOUS
 10
64.283623
 20
325.346141
30
-313.410736
  0
VERTEX
  8
1
  6
CONTINUOUS
 10
64.289483
 20
325.314978
30
-313.429819
  0
VERTEX
  8
1
  6
CONTINUOUS
 10
64.486505
 20
325.339655
30
-313.411136
  0
VERTEX
  8
1
  6
CONTINUOUS
 10
64.474015
 20
325.381945
30
-313.424894
  0
SEQEND
  8
0
  0
POLYLINE
  8
1
  6
CONTINUOUS
 66
     1
 70
     0
 210
-0.338652
 220
0.079748
 230
-0.937526
 10
0.000000
 20
0.000000
30
-280.541908
  0
VERTEX
  8
1
  6
CONTINUOUS
 10
24.744054
 20
359.000425
30
-280.541908
  0
VERTEX
  8
1
  6
CONTINUOUS
 10
24.790129
 20
358.959459
30
-280.545407
  0
VERTEX
  8
1
  6
CONTINUOUS
 10
24.808971
 20
358.923643
30
-280.548502
  0
VERTEX
  8
1
  6
CONTINUOUS
 10
24.832657
 20
358.927109
30
-280.541943
  0
VERTEX
  8
1
  6
CONTINUOUS
 10
24.876351
 20
358.942505
30
-280.530603
  0
VERTEX
  8
1
  6
CONTINUOUS
 10
24.911248
 20
358.952095
30
-280.523881
  0
VERTEX
  8
1
  6
CONTINUOUS
 10
24.928509
 20
358.967348
30
-280.520329
  0
VERTEX
  8
1
  6
CONTINUOUS
 10
24.922169
 20
359.009064
30
-280.562158
  0
VERTEX
  8
1
  6
CONTINUOUS
 10
24.912578
 20
359.035938
30
-280.550075
  0
VERTEX
  8
1
  6
CONTINUOUS
 10
24.911978
 20
359.060102
30
-280.540757
  0
VERTEX
  8
1
  6
CONTINUOUS
 10
24.923525
 20
359.093216
30
-280.530160
  0
SEQEND
  8
0
  0
POLYLINE
  8
1
  6
CONTINUOUS
 66
     1
 70
     0
 210
0.443133
 220
0.862019
 230
0.246081
 10
0.000000
 20
0.000000
30
16.262057
  0
VERTEX
  8
1
  6
CONTINUOUS
 10
226.646184
 20
395.825436
30
16.262057
  0
VERTEX
  8
1
  6
CONTINUOUS
 10
226.178706
 20
395.699914
30
16.231373
  0
VERTEX
  8
1
  6
CONTINUOUS
 10
226.189883
 20
395.500004
30
16.232475
  0
VERTEX
  8
1
  6
CONTINUOUS
 10
226.546153
 20
395.565632
30
16.266001
  0
VERTEX
  8
1
  6
CONTINUOUS
 10
226.613317
 20
395.637405
30
16.225748
  0
VERTEX
  8
1
  6
CONTINUOUS
 10
226.632355
 20
395.701633
30
16.211205
  0
SEQEND
  8
0
  0
POLYLINE
  8
1
  6
CONTINUOUS
 66
     1
 70
     0
 210
0.104049
 220
-0.085776
 230
0.990866
 10
0.000000
 20
0.000000
30
356.357370
  0
VERTEX
  8
1
  6
CONTINUOUS
 10
-127.942796
 20
254.353703
30
356.357370
  0
VERTEX
  8
1
  6
CONTINUOUS
 10
-127.990645
 20
254.689380
30
356.357370
  0
VERTEX
  8
1
  6
CONTINUOUS
 10
-128.051726
 20
254.684501
30
356.357370
  0
SEQEND
  8
0
  0
POLYLINE
  8
1
  6
CONTINUOUS
 66
     1
 70
     0
 210
-0.007258
 220
-0.116742
 230
0.993136
 10
0.000000
 20
0.000000
30
383.371183
  0
VERTEX
  8
1
  6
CONTINUOUS
 10
-239.855592
 20
60.821320
30
383.371183
  0
VERTEX
  8
1
  6
CONTINUOUS
 10
-239.867844
 20
60.922553
30
383.359260
  0
VERTEX
  8
1
  6
CONTINUOUS
 10
-240.191675
 20
60.917019
30
383.427621
  0
VERTEX
  8
1
  6
CONTINUOUS
 10
-240.202202
 20
61.040848
30
383.400425
  0
VERTEX
  8
1
  6
CONTINUOUS
 10
-240.137189
 20
61.041773
30
383.400316
  0
VERTEX
  8
1
  6
CONTINUOUS
 10
-240.143366
 20
61.130932
30
383.389815
  0
VERTEX
  8
1
  6
CONTINUOUS
 10
-240.202902
 20
61.127082
30
383.390269
  0
VERTEX
  8
1
  6
CONTINUOUS
 10
-240.209757
 20
61.231577
30
383.377630
  0
VERTEX
  8
1
  6
CONTINUOUS
 10
-240.326513
 20
61.222093
30
383.407290
  0
VERTEX
  8
1
  6
CONTINUOUS
 10
-240.332496
 20
61.325062
30
383.409434
  0
VERTEX
  8
1
  6
CONTINUOUS
 10
-240.516982
 20
61.312859
30
383.414191
  0
VERTEX
  8
1
  6
CONTINUOUS
 10
-240.526008
 20
61.444310
30
383.388752
  0
VERTEX
  8
1
  6
CONTINUOUS
 10
-240.375794
 20
61.450846
30
383.346494
  0
VERTEX
  8
1
  6
CONTINUOUS
 10
-241.239911
 20
61.948460
30
383.399591
  0
SEQEND
  8
0
  0
POLYLINE
  8
1
  6
CONTINUOUS
 66
     1
 70
     0
 210
0.086084
 220
0.074082
 230
0.993530
 10
0.000000
 20
0.000000
30
367.256159
  0
VERTEX
  8
1
  6
CONTINUOUS
 10
180.352027
 20
204.115496
30
367.256159
  0
VERTEX
  8
1
  6
CONTINUOUS
 10
180.058904
 20
203.949877
30
367.274763
  0
VERTEX
  8
1
  6
CONTINUOUS
 10
180.050745
 20
203.918063
30
367.263470
  0
VERTEX
  8
1
  6
CONTINUOUS
 10
180.117585
 20
203.899574
30
367.257621
  0
VERTEX
  8
1
  6
CONTINUOUS
 10
180.394131
 20
204.055832
30
367.273930
  0
VERTEX
  8
1
  6
CONTINUOUS
 10
180.420596
 20
204.058940
30
367.273041
  0
SEQEND
  8
0
  0
POLYLINE
  8
1
  6
CONTINUOUS
 66
     1
 70
     0
 210
0.199924
 220
0.028735
 230
0.979390
 10
0.000000
 20
0.000000
30
333.021785
  0
VERTEX
  8
1
  6
CONTINUOUS
 10
68.672081
 20
309.587977
30
333.021785
  0
VERTEX
  8
1
  6
CONTINUOUS
 10
67.807795
 20
308.982955
30
333.032464
  0
VERTEX
  8
1
  6
CONTINUOUS
 10
67.036816
 20
308.359752
30
333.021649
  0
VERTEX
  8
1
  6
CONTINUOUS
 10
66.812008
 20
308.163826
30
333.012580
  0
VERTEX
  8
1
  6
CONTINUOUS
 10
66.363630
 20
307.606508
30
333.026883
  0
VERTEX
  8
1
  6
CONTINUOUS
 10
65.937417
 20
307.104904
30
333.035082
  0
VERTEX
  8
1
  6
CONTINUOUS
 10
65.733145
 20
306.832026
30
333.030551
  0
SEQEND
  8
0
  0
POLYLINE
  8
1
  6
CONTINUOUS
 66
     1
 70
     0
 210
0.047698
 220
0.137778
 230
-0.989314
 10
0.000000
 20
0.000000
30
-390.985263
  0
VERTEX
  8
1
  6
CONTINUOUS
 10
237.637720
 20
9.290643
30
-390.985263
  0
VERTEX
  8
1
  6
CONTINUOUS
 10
237.821516
 20
9.855537
30
-390.932502
  0
VERTEX
  8
1
  6
CONTINUOUS
 10
237.804877
 20
9.888202
30
-390.987329
  0
VERTEX
  8
1
  6
CONTINUOUS
 10
237.770494
 20
9.898701
30
-391.000108
  0
VERTEX
  8
1
  6
CONTINUOUS
 10
237.668931
 20
9.864396
30
-391.026820
  0
VERTEX
  8
1
  6
CONTINUOUS
 10
237.595945
 20
9.857141
30
-391.032555
  0
VERTEX
  8
1
  6
CONTINUOUS
 10
237.551252
 20
9.859074
30
-391.031937
  0
VERTEX
  8
1
  6
CONTINUOUS
 10
237.546179
 20
9.861519
30
-391.031577
  0
VERTEX
  8
1
  6
CONTINUOUS
 10
237.546669
 20
9.977020
30
-390.990232
  0
VERTEX
  8
1
  6
CONTINUOUS
 10
237.559177
 20
10.034077
30
-390.933178
  0
VERTEX
  8
1
  6
CONTINUOUS
 10
237.542093
 20
10.039363
30
-390.913740
  0
VERTEX
  8
1
  6
CONTINUOUS
 10
237.543884
 20
10.032794
30
-390.909377
  0
VERTEX
  8
1
  6
CONTINUOUS
 10
237.504103
 20
9.942818
30
-390.921972
  0
VERTEX
  8
1
  6
CONTINUOUS
 10
237.414446
 20
9.693068
30
-390.959444
  0
VERTEX
  8
1
  6
CONTINUOUS
 10
237.353791
 20
9.530839
30
-390.987351
  0
VERTEX
  8
1
  6
CONTINUOUS
 10
237.322980
 20
9.458792
30
-391.020959
  0
SEQEND
  8
0
  0
LINE
  8
1
  6
CONTINUOUS
 10
-240.227458
 20
30.552029
 30
388.631986
 11
-240.220105
 21
32.447470
 31
388.499532
  0
POLYLINE
  8
1
  6
CONTINUOUS
 66
     1
 70
     0
 210
0.217822
 220
0.743322
 230
0.632477
 10
0.000000
 20
0.000000
30
217.582777
  0
VERTEX
  8
1
  6
CONTINUOUS
 10
239.189669
 20
323.714209
30
217.582777
  0
VERTEX
  8
1
  6
CONTINUOUS
 10
239.360706
 20
323.649401
30
217.598042
  0
VERTEX
  8
1
  6
CONTINUOUS
 10
239.491667
 20
323.709731
30
217.600769
  0
VERTEX
  8
1
  6
CONTINUOUS
 10
239.632670
 20
323.710895
30
217.577976
  0
VERTEX
  8
1
  6
CONTINUOUS
 10
239.676435
 20
323.939387
30
217.602226
  0
SEQEND
  8
0
  0
POLYLINE
  8
1
  6
CONTINUOUS
 66
     1
 70
     0
 210
-0.271248
 220
0.269621
 230
-0.923975
 10
0.000000
 20
0.000000
30
-285.127552
  0
VERTEX
  8
1
  6
CONTINUOUS
 10
146.354434
 20
327.188464
30
-285.127552
  0
VERTEX
  8
1
  6
CONTINUOUS
 10
146.290255
 20
327.228794
30
-285.078853
  0
VERTEX
  8
1
  6
CONTINUOUS
 10
145.919686
 20
326.803856
30
-285.089570
  0
VERTEX
  8
1
  6
CONTINUOUS
 10
145.981691
 20
326.745913
30
-285.115338
  0
VERTEX
  8
1
  6
CONTINUOUS
 10
146.350889
 20
327.153626
30
-285.053439
  0
SEQEND
  8
0
  0
POLYLINE
  8
1
  6
CONTINUOUS
 66
     1
 70
     0
 210
-0.264736
 220
0.273525
 230
-0.924716
 10
0.000000
 20
0.000000
30
-286.848482
  0
VERTEX
  8
1
  6
CONTINUOUS
 10
150.057569
 20
323.988156
30
-286.848482
  0
VERTEX
  8
1
  6
CONTINUOUS
 10
150.000681
 20
324.025635
30
-286.804215
  0
VERTEX
  8
1
  6
CONTINUOUS
 10
149.622511
 20
323.607371
30
-286.811352
  0
VERTEX
  8
1
  6
CONTINUOUS
 10
149.683278
 20
323.548281
30
-286.837459
  0
VERTEX
  8
1
  6
CONTINUOUS
 10
150.063767
 20
323.953294
30
-286.778537
  0
SEQEND
  8
0
  0
POLYLINE
  8
1
  6
CONTINUOUS
 66
     1
 70
     0
 210
-0.323799
 220
-0.655862
 230
-0.681909
 10
0.000000
 20
0.000000
30
-208.770137
  0
VERTEX
  8
1
  6
CONTINUOUS
 10
-229.753512
 20
336.276121
30
-208.770137
  0
VERTEX
  8
1
  6
CONTINUOUS
 10
-229.890316
 20
336.290853
30
-208.780438
  0
VERTEX
  8
1
  6
CONTINUOUS
 10
-229.973413
 20
336.248632
30
-208.770137
  0
VERTEX
  8
1
  6
CONTINUOUS
 10
-230.006716
 20
336.226617
30
-208.780438
  0
SEQEND
  8
0
  0
POLYLINE
  8
1
  6
CONTINUOUS
 66
     1
 70
     0
 210
-0.433358
 220
0.031067
 230
0.900686
 10
0.000000
 20
0.000000
30
456.648009
  0
VERTEX
  8
1
  6
CONTINUOUS
 10
-17.022425
 20
-52.050409
30
456.648009
  0
VERTEX
  8
1
  6
CONTINUOUS
 10
-17.040454
 20
-52.052074
30
456.649178
  0
VERTEX
  8
1
  6
CONTINUOUS
 10
-17.169304
 20
-52.068775
30
456.657235
  0
VERTEX
  8
1
  6
CONTINUOUS
 10
-17.236180
 20
-52.031590
30
456.639298
  0
VERTEX
  8
1
  6
CONTINUOUS
 10
-17.318928
 20
-52.042214
30
456.644422
  0
VERTEX
  8
1
  6
CONTINUOUS
 10
-17.309875
 20
-52.072248
30
456.657446
  0
VERTEX
  8
1
  6
CONTINUOUS
 10
-17.546582
 20
-52.107630
30
456.633890
  0
VERTEX
  8
1
  6
CONTINUOUS
 10
-18.664812
 20
-52.238303
30
456.616390
  0
SEQEND
  8
0
  0
POLYLINE
  8
1
  6
CONTINUOUS
 66
     1
 70
     0
 210
-0.225576
 220
-0.028316
 230
-0.973814
 10
0.000000
 20
0.000000
30
-324.513695
  0
VERTEX
  8
1
  6
CONTINUOUS
 10
-66.533586
 20
320.541813
30
-324.513695
  0
VERTEX
  8
1
  6
CONTINUOUS
 10
-66.702925
 20
320.529237
30
-324.508606
  0
VERTEX
  8
1
  6
CONTINUOUS
 10
-66.565639
 20
319.188047
30
-324.513695
  0
VERTEX
  8
1
  6
CONTINUOUS
 10
-66.388813
 20
319.209843
30
-324.508606
  0
SEQEND
  8
0
  0
POLYLINE
  8
1
  6
CONTINUOUS
 66
     1
 70
     0
 210
0.132896
 220
0.696916
 230
0.704732
 10
0.000000
 20
0.000000
30
266.924586
  0
VERTEX
  8
1
  6
CONTINUOUS
 10
246.029779
 20
282.534090
30
266.924586
  0
VERTEX
  8
1
  6
CONTINUOUS
 10
246.232118
 20
282.417183
30
266.915056
  0
VERTEX
  8
1
  6
CONTINUOUS
 10
246.311136
 20
282.392004
30
266.900649
  0
VERTEX
  8
1
  6
CONTINUOUS
 10
246.568563
 20
282.479719
30
266.926002
  0
VERTEX
  8
1
  6
CONTINUOUS
 10
246.910606
 20
282.601241
30
266.955676
  0
VERTEX
  8
1
  6
CONTINUOUS
 10
247.216632
 20
282.659044
30
266.909177
  0
VERTEX
  8
1
  6
CONTINUOUS
 10
247.280115
 20
282.739144
30
266.913198
  0
VERTEX
  8
1
  6
CONTINUOUS
 10
247.321825
 20
282.926956
30
266.927282
  0
SEQEND
  8
0
  0
POLYLINE
  8
1
  6
CONTINUOUS
 66
     1
 70
     0
 210
0.199651
 220
0.057414
 230
0.978184
 10
0.000000
 20
0.000000
30
333.645048
  0
VERTEX
  8
1
  6
CONTINUOUS
 10
102.421966
 20
301.196023
30
333.645048
  0
VERTEX
  8
1
  6
CONTINUOUS
 10
102.208283
 20
300.482521
30
333.644466
  0
VERTEX
  8
1
  6
CONTINUOUS
 10
102.036632
 20
299.800031
30
333.632042
  0
VERTEX
  8
1
  6
CONTINUOUS
 10
102.207555
 20
299.762729
30
333.637607
  0
VERTEX
  8
1
  6
CONTINUOUS
 10
102.370626
 20
300.425165
30
333.642832
  0
VERTEX
  8
1
  6
CONTINUOUS
 10
102.577997
 20
301.147250
30
333.643141
  0
VERTEX
  8
1
  6
CONTINUOUS
 10
102.422110
 20
301.191662
30
333.624726
  0
SEQEND
  8
0
  0
POLYLINE
  8
1
  6
CONTINUOUS
 66
     1
 70
     0
 210
-0.353753
 220
0.061145
 230
-0.933338
 10
0.000000
 20
0.000000
30
-273.866229
  0
VERTEX
  8
1
  6
CONTINUOUS
 10
5.575920
 20
370.386586
30
-273.866229
  0
VERTEX
  8
1
  6
CONTINUOUS
 10
5.170248
 20
370.431287
30
-273.836876
  0
VERTEX
  8
1
  6
CONTINUOUS
 10
4.835736
 20
370.466791
30
-273.788609
  0
VERTEX
  8
1
  6
CONTINUOUS
 10
4.814613
 20
370.465174
30
-273.763803
  0
VERTEX
  8
1
  6
CONTINUOUS
 10
4.805342
 20
370.481216
30
-273.756220
  0
VERTEX
  8
1
  6
CONTINUOUS
 10
4.731456
 20
370.322819
30
-273.942166
  0
VERTEX
  8
1
  6
CONTINUOUS
 10
4.718034
 20
370.116281
30
-273.872220
  0
VERTEX
  8
1
  6
CONTINUOUS
 10
4.729481
 20
370.062436
30
-273.778857
  0
VERTEX
  8
1
  6
CONTINUOUS
 10
4.738276
 20
370.075599
30
-273.774501
  0
VERTEX
  8
1
  6
CONTINUOUS
 10
5.000116
 20
370.028614
30
-273.809525
  0
VERTEX
  8
1
  6
CONTINUOUS
 10
5.271161
 20
369.985714
30
-273.857810
  0
VERTEX
  8
1
  6
CONTINUOUS
 10
5.476871
 20
369.958035
30
-273.885501
  0
SEQEND
  8
0
  0
POLYLINE
  8
1
  6
CONTINUOUS
 66
     1
 70
     0
 210
-0.212980
 220
0.017744
 230
-0.976896
 10
0.000000
 20
0.000000
30
-326.784691
  0
VERTEX
  8
1
  6
CONTINUOUS
 10
-16.275382
 20
323.625337
30
-326.784691
  0
VERTEX
  8
1
  6
CONTINUOUS
 10
-16.461587
 20
323.619711
30
-326.753258
  0
VERTEX
  8
1
  6
CONTINUOUS
 10
-16.805128
 20
323.658490
30
-326.703609
  0
VERTEX
  8
1
  6
CONTINUOUS
 10
-16.876731
 20
323.661774
30
-326.708290
  0
VERTEX
  8
1
  6
CONTINUOUS
 10
-16.937884
 20
323.651201
30
-326.656952
  0
VERTEX
  8
1
  6
CONTINUOUS
 10
-16.948459
 20
323.693653
30
-326.688830
  0
VERTEX
  8
1
  6
CONTINUOUS
 10
-17.021120
 20
323.578643
30
-326.838162
  0
VERTEX
  8
1
  6
CONTINUOUS
 10
-17.034266
 20
323.393777
30
-326.795938
  0
VERTEX
  8
1
  6
CONTINUOUS
 10
-17.010493
 20
323.316014
30
-326.730282
  0
VERTEX
  8
1
  6
CONTINUOUS
 10
-16.979295
 20
323.300704
30
-326.672895
  0
VERTEX
  8
1
  6
CONTINUOUS
 10
-16.977028
 20
323.323764
30
-326.655366
  0
VERTEX
  8
1
  6
CONTINUOUS
 10
-16.899729
 20
323.314664
30
-326.709994
  0
VERTEX
  8
1
  6
CONTINUOUS
 10
-16.813631
 20
323.308125
30
-326.711762
  0
VERTEX
  8
1
  6
CONTINUOUS
 10
-16.641461
 20
323.298742
30
-326.733723
  0
VERTEX
  8
1
  6
CONTINUOUS
 10
-16.371218
 20
323.270179
30
-326.767978
  0
VERTEX
  8
1
  6
CONTINUOUS
 10
-16.288951
 20
323.248643
30
-326.819909
  0
SEQEND
  8
0
  0
POLYLINE
  8
1
  6
CONTINUOUS
 66
     1
 70
     0
 210
0.186397
 220
-0.121535
 230
0.974929
 10
0.000000
 20
0.000000
30
329.299647
  0
VERTEX
  8
1
  6
CONTINUOUS
 10
-103.549814
 20
303.883877
30
329.299647
  0
VERTEX
  8
1
  6
CONTINUOUS
 10
-103.499205
 20
303.805921
30
329.317439
  0
VERTEX
  8
1
  6
CONTINUOUS
 10
-103.422308
 20
303.856197
30
329.305626
  0
VERTEX
  8
1
  6
CONTINUOUS
 10
-103.419171
 20
303.871967
30
329.301689
  0
VERTEX
  8
1
  6
CONTINUOUS
 10
-103.405660
 20
303.869464
30
329.302260
  0
VERTEX
  8
1
  6
CONTINUOUS
 10
-103.382415
 20
303.884572
30
329.298135
  0
VERTEX
  8
1
  6
CONTINUOUS
 10
-103.433593
 20
303.969337
30
329.319023
  0
VERTEX
  8
1
  6
CONTINUOUS
 10
-103.456011
 20
303.947936
30
329.293140
  0
VERTEX
  8
1
  6
CONTINUOUS
 10
-103.462909
 20
303.929850
30
329.296254
  0
VERTEX
  8
1
  6
CONTINUOUS
 10
-103.474106
 20
303.936158
30
329.293123
  0
VERTEX
  8
1
  6
CONTINUOUS
 10
-103.549392
 20
303.890156
30
329.330156
  0
SEQEND
  8
0
  0
POLYLINE
  8
1
  6
CONTINUOUS
 66
     1
 70
     0
 210
0.549546
 220
0.102639
 230
-0.829135
 10
0.000000
 20
0.000000
30
-452.435489
  0
VERTEX
  8
1
  6
CONTINUOUS
 10
79.140765
 20
24.209100
30
-452.435489
  0
VERTEX
  8
1
  6
CONTINUOUS
 10
79.128561
 20
24.311825
30
-452.475553
  0
VERTEX
  8
1
  6
CONTINUOUS
 10
79.146147
 20
24.336178
30
-452.496901
  0
VERTEX
  8
1
  6
CONTINUOUS
 10
79.137191
 20
24.364679
30
-452.461781
  0
VERTEX
  8
1
  6
CONTINUOUS
 10
79.049520
 20
24.336745
30
-452.457558
  0
VERTEX
  8
1
  6
CONTINUOUS
 10
79.061895
 20
24.290056
30
-452.466377
  0
VERTEX
  8
1
  6
CONTINUOUS
 10
79.089862
 20
24.319200
30
-452.498012
  0
VERTEX
  8
1
  6
CONTINUOUS
 10
79.100302
 20
24.184880
30
-452.431741
  0
SEQEND
  8
0
  0
POLYLINE
  8
1
  6
CONTINUOUS
 66
     1
 70
     0
 210
-0.024562
 220
0.003154
 230
0.999693
 10
0.000000
 20
0.000000
30
394.640904
  0
VERTEX
  8
1
  6
CONTINUOUS
 10
-3.704408
 20
-236.128787
30
394.640904
  0
VERTEX
  8
1
  6
CONTINUOUS
 10
-3.727738
 20
-236.081891
30
394.640904
  0
VERTEX
  8
1
  6
CONTINUOUS
 10
-3.778366
 20
-236.081891
30
394.640904
  0
SEQEND
  8
0
  0
POLYLINE
  8
1
  6
CONTINUOUS
 66
     1
 70
     0
 210
0.456479
 220
-0.078062
 230
-0.886303
 10
0.000000
 20
0.000000
30
-458.258405
  0
VERTEX
  8
1
  6
CONTINUOUS
 10
-6.738525
 20
-37.759565
30
-458.258405
  0
VERTEX
  8
1
  6
CONTINUOUS
 10
-6.754987
 20
-37.744322
30
-458.284283
  0
VERTEX
  8
1
  6
CONTINUOUS
 10
-6.763351
 20
-37.795718
30
-458.256468
  0
VERTEX
  8
1
  6
CONTINUOUS
 10
-6.729240
 20
-37.814520
30
-458.262202
  0
VERTEX
  8
1
  6
CONTINUOUS
 10
-6.537524
 20
-37.842675
30
-458.276200
  0
SEQEND
  8
0
  0
LINE
  8
1
  6
CONTINUOUS
 10
-243.432749
 20
35.043352
 30
388.663959
 11
-243.443549
 21
35.043388
 31
388.543478
  0
POLYLINE
  8
1
  6
CONTINUOUS
 66
     1
 70
     0
 210
-0.406270
 220
-0.278276
 230
-0.870349
 10
0.000000
 20
0.000000
30
-249.072669
  0
VERTEX
  8
1
  6
CONTINUOUS
 10
-162.200230
 20
347.817440
30
-249.072669
  0
VERTEX
  8
1
  6
CONTINUOUS
 10
-162.561759
 20
348.050634
30
-249.107459
  0
VERTEX
  8
1
  6
CONTINUOUS
 10
-162.973039
 20
348.256299
30
-249.094488
  0
VERTEX
  8
1
  6
CONTINUOUS
 10
-163.384237
 20
348.450421
30
-249.039950
  0
VERTEX
  8
1
  6
CONTINUOUS
 10
-163.383256
 20
348.452736
30
-249.038640
  0
VERTEX
  8
1
  6
CONTINUOUS
 10
-163.662499
 20
348.583700
30
-249.052029
  0
VERTEX
  8
1
  6
CONTINUOUS
 10
-163.970581
 20
348.670852
30
-249.037561
  0
VERTEX
  8
1
  6
CONTINUOUS
 10
-164.485268
 20
348.797163
30
-249.018362
  0
VERTEX
  8
1
  6
CONTINUOUS
 10
-164.837248
 20
348.879294
30
-249.030596
  0
VERTEX
  8
1
  6
CONTINUOUS
 10
-165.042717
 20
348.941823
30
-249.037256
  0
VERTEX
  8
1
  6
CONTINUOUS
 10
-165.278028
 20
349.002821
30
-249.091367
  0
VERTEX
  8
1
  6
CONTINUOUS
 10
-165.774732
 20
349.085014
30
-249.065692
  0
VERTEX
  8
1
  6
CONTINUOUS
 10
-165.867974
 20
349.089758
30
-249.076642
  0
VERTEX
  8
1
  6
CONTINUOUS
 10
-165.979319
 20
349.138807
30
-249.050027
  0
VERTEX
  8
1
  6
CONTINUOUS
 10
-166.085604
 20
349.174891
30
-249.007266
  0
VERTEX
  8
1
  6
CONTINUOUS
 10
-166.036022
 20
349.216504
30
-249.009853
  0
VERTEX
  8
1
  6
CONTINUOUS
 10
-165.925830
 20
349.276632
30
-248.985681
  0
VERTEX
  8
1
  6
CONTINUOUS
 10
-165.881020
 20
349.204182
30
-249.053183
  0
VERTEX
  8
1
  6
CONTINUOUS
 10
-165.875038
 20
349.113348
30
-249.074658
  0
VERTEX
  8
1
  6
CONTINUOUS
 10
-165.847447
 20
349.078134
30
-249.051170
  0
SEQEND
  8
0
  0
LINE
  8
1
  6
CONTINUOUS
 10
-244.074329
 20
34.973858
 30
388.852133
 11
-243.442963
 21
34.982948
 31
388.670938
  0
POLYLINE
  8
1
  6
CONTINUOUS
 66
     1
 70
     0
 210
0.189651
 220
-0.019347
 230
0.981661
 10
0.000000
 20
0.000000
30
334.730870
  0
VERTEX
  8
1
  6
CONTINUOUS
 10
10.134360
 20
315.335394
30
334.730870
  0
VERTEX
  8
1
  6
CONTINUOUS
 10
10.066221
 20
315.974292
30
334.730870
  0
VERTEX
  8
1
  6
CONTINUOUS
 10
10.023325
 20
315.969704
30
334.730870
  0
SEQEND
  8
0
  0
POLYLINE
  8
1
  6
CONTINUOUS
 66
     1
 70
     0
 210
-0.138939
 220
0.393810
 230
0.908630
 10
0.000000
 20
0.000000
30
401.152889
  0
VERTEX
  8
1
  6
CONTINUOUS
 10
219.159955
 20
58.440295
30
401.152889
  0
VERTEX
  8
1
  6
CONTINUOUS
 10
219.386132
 20
58.548503
30
401.156261
  0
VERTEX
  8
1
  6
CONTINUOUS
 10
219.378701
 20
58.597176
30
401.112126
  0
VERTEX
  8
1
  6
CONTINUOUS
 10
219.405410
 20
58.596877
30
401.107909
  0
VERTEX
  8
1
  6
CONTINUOUS
 10
219.466302
 20
58.554318
30
401.133999
  0
VERTEX
  8
1
  6
CONTINUOUS
 10
219.833014
 20
58.728056
30
401.138313
  0
VERTEX
  8
1
  6
CONTINUOUS
 10
219.717776
 20
58.879016
30
401.129516
  0
SEQEND
  8
0
  0
POLYLINE
  8
1
  6
CONTINUOUS
 66
     1
 70
     0
 210
0.533738
 220
-0.320864
 230
0.782413
 10
0.000000
 20
0.000000
30
162.354237
  0
VERTEX
  8
1
  6
CONTINUOUS
 10
-99.301081
 20
421.329220
30
162.354237
  0
VERTEX
  8
1
  6
CONTINUOUS
 10
-99.614158
 20
421.421761
30
162.370737
  0
VERTEX
  8
1
  6
CONTINUOUS
 10
-99.637477
 20
421.227595
30
162.354237
  0
VERTEX
  8
1
  6
CONTINUOUS
 10
-99.332097
 20
421.217114
30
162.370737
  0
SEQEND
  8
0
  0
POLYLINE
  8
1
  6
CONTINUOUS
 66
     1
 70
     0
 210
-0.066361
 220
-0.048675
 230
0.996608
 10
0.000000
 20
0.000000
30
403.057118
  0
VERTEX
  8
1
  6
CONTINUOUS
 10
-171.965617
 20
-147.416410
30
403.057118
  0
VERTEX
  8
1
  6
CONTINUOUS
 10
-171.993299
 20
-147.455464
30
403.053876
  0
VERTEX
  8
1
  6
CONTINUOUS
 10
-171.937578
 20
-147.494725
30
403.057118
  0
VERTEX
  8
1
  6
CONTINUOUS
 10
-171.911204
 20
-147.455464
30
403.053876
  0
SEQEND
  8
0
  0
POLYLINE
  8
1
  6
CONTINUOUS
 66
     1
 70
     0
 210
0.000000
 220
0.000000
 230
-1.000000
 10
0.000000
 20
0.000000
30
-389.551642
  0
VERTEX
  8
1
  6
CONTINUOUS
 10
246.916151
 20
31.835864
30
-389.551642
  0
VERTEX
  8
1
  6
CONTINUOUS
 10
246.953967
 20
31.833987
30
-389.551642
  0
VERTEX
  8
1
  6
CONTINUOUS
 10
246.956455
 20
31.895289
30
-389.551642
  0
VERTEX
  8
1
  6
CONTINUOUS
 10
246.916646
 20
31.895782
30
-389.551642
  0
SEQEND
  8
0
  0
POLYLINE
  8
1
  6
CONTINUOUS
 66
     1
 70
     0
 210
-0.200654
 220
0.018893
 230
-0.979480
 10
0.000000
 20
0.000000
30
-331.585378
  0
VERTEX
  8
1
  6
CONTINUOUS
 10
-8.390570
 20
322.388093
30
-331.585378
  0
VERTEX
  8
1
  6
CONTINUOUS
 10
-8.489807
 20
322.342414
30
-331.585174
  0
VERTEX
  8
1
  6
CONTINUOUS
 10
-8.104838
 20
321.355197
30
-331.585378
  0
VERTEX
  8
1
  6
CONTINUOUS
 10
-7.435398
 20
321.269507
30
-331.585174
  0
SEQEND
  8
0
  0
POLYLINE
  8
1
  6
CONTINUOUS
 66
     1
 70
     0
 210
0.193998
 220
0.005029
 230
0.980989
 10
0.000000
 20
0.000000
30
334.526147
  0
VERTEX
  8
1
  6
CONTINUOUS
 10
37.009924
 20
316.204682
30
334.526147
  0
VERTEX
  8
1
  6
CONTINUOUS
 10
37.612310
 20
316.204682
30
334.526147
  0
VERTEX
  8
1
  6
CONTINUOUS
 10
38.081084
 20
317.103768
30
334.526147
  0
SEQEND
  8
0
  0
POLYLINE
  8
1
  6
CONTINUOUS
 66
     1
 70
     0
 210
0.194706
 220
-0.310007
 230
-0.930583
 10
0.000000
 20
0.000000
30
-420.732620
  0
VERTEX
  8
1
  6
CONTINUOUS
 10
-188.083257
 20
-7.318784
30
-420.732620
  0
VERTEX
  8
1
  6
CONTINUOUS
 10
-188.691168
 20
-6.219578
30
-420.481379
  0
VERTEX
  8
1
  6
CONTINUOUS
 10
-188.748986
 20
-6.256770
30
-420.487509
  0
VERTEX
  8
1
  6
CONTINUOUS
 10
-188.795467
 20
-6.179145
30
-420.462641
  0
VERTEX
  8
1
  6
CONTINUOUS
 10
-188.852597
 20
-6.107791
30
-420.524894
  0
VERTEX
  8
1
  6
CONTINUOUS
 10
-189.513463
 20
-5.916866
30
-420.508587
  0
VERTEX
  8
1
  6
CONTINUOUS
 10
-190.282381
 20
-5.711146
30
-420.590952
  0
VERTEX
  8
1
  6
CONTINUOUS
 10
-191.093361
 20
-5.461525
30
-420.634794
  0
VERTEX
  8
1
  6
CONTINUOUS
 10
-191.806703
 20
-5.298408
30
-420.661658
  0
VERTEX
  8
1
  6
CONTINUOUS
 10
-191.977256
 20
-5.045403
30
-420.556461
  0
VERTEX
  8
1
  6
CONTINUOUS
 10
-191.938639
 20
-4.980061
30
-420.563344
  0
VERTEX
  8
1
  6
CONTINUOUS
 10
-191.966952
 20
-4.984076
30
-420.590781
  0
VERTEX
  8
1
  6
CONTINUOUS
 10
-192.148806
 20
-4.710160
30
-420.468858
  0
VERTEX
  8
1
  6
CONTINUOUS
 10
-192.215460
 20
-4.612662
30
-420.426935
  0
SEQEND
  8
0
  0
POLYLINE
  8
1
  6
CONTINUOUS
 66
     1
 70
     0
 210
-0.824230
 220
0.015174
 230
-0.566052
 10
0.000000
 20
0.000000
30
-16.510133
  0
VERTEX
  8
1
  6
CONTINUOUS
 10
-25.160175
 20
461.126979
30
-16.510133
  0
VERTEX
  8
1
  6
CONTINUOUS
 10
-26.367508
 20
461.184158
30
-16.510133
  0
VERTEX
  8
1
  6
CONTINUOUS
 10
-27.067090
 20
461.206656
30
-16.510133
  0
SEQEND
  8
0
  0
POLYLINE
  8
1
  6
HIDDEN
 66
     1
 70
     0
 210
1.000000
 220
0.000000
 230
0.000000
 10
0.000000
 20
0.000000
30
-246.916172
  0
VERTEX
  8
1
  6
HIDDEN
 10
31.729004
 20
389.553369
30
-246.916172
  0
VERTEX
  8
1
  6
HIDDEN
 10
31.624707
 20
389.550604
30
-246.916193
  0
SEQEND
  8
0
  0
POLYLINE
  8
1
  6
CONTINUOUS
 66
     1
 70
     0
 10
0.000000
 20
0.000000
30
389.551642
  0
VERTEX
  8
1
  6
CONTINUOUS
 10
-246.916554
 20
30.890574
30
389.551642
  0
VERTEX
  8
1
  6
CONTINUOUS
 10
-246.949879
 20
30.889946
30
389.551642
  0
VERTEX
  8
1
  6
CONTINUOUS
 10
-246.947415
 20
30.836883
30
389.551642
  0
VERTEX
  8
1
  6
CONTINUOUS
 10
-246.915799
 20
30.836688
30
389.551642
  0
SEQEND
  8
0
  0
POLYLINE
  8
1
  6
CONTINUOUS
 66
     1
 70
     0
 210
0.888678
 220
-0.031800
 230
-0.457428
 10
0.000000
 20
0.000000
30
-391.747322
  0
VERTEX
  8
1
  6
CONTINUOUS
 10
23.839687
 20
235.248054
30
-391.747322
  0
VERTEX
  8
1
  6
CONTINUOUS
 10
22.989307
 20
235.305940
30
-391.737841
  0
VERTEX
  8
1
  6
CONTINUOUS
 10
22.132982
 20
235.362966
30
-391.747322
  0
VERTEX
  8
1
  6
CONTINUOUS
 10
21.935658
 20
235.363601
30
-391.737841
  0
SEQEND
  8
0
  0
ENDSEC
  0
EOF
